ISO-10303-21;
HEADER;
FILE_DESCRIPTION (( 'STEP AP214' ),
    '1' );
FILE_NAME ('1124727.stp',
    '2024-05-02T14:39:08',
    ( '' ),
    ( '' ),
    'SwSTEP 2.0',
    'SolidWorks 2022',
    '' );
FILE_SCHEMA (( 'AUTOMOTIVE_DESIGN' ));
ENDSEC;

DATA;
#1 = DIRECTION ( 'NONE',  ( 0.000000000000000000, 1.000000000000000000, 0.000000000000000000 ) ) ;
#2 = EDGE_CURVE ( 'NONE', #53, #133, #247, .T. ) ;
#3 = EDGE_LOOP ( 'NONE', ( #26 ) ) ;
#4 = DIRECTION ( 'NONE',  ( 1.000000000000000000, 0.000000000000000000, 0.000000000000000000 ) ) ;
#5 = AXIS2_PLACEMENT_3D ( 'NONE', #157, #118, #253 ) ;
#6 = FACE_OUTER_BOUND ( 'NONE', #268, .T. ) ;
#7 = PLANE ( 'NONE',  #288 ) ;
#8 = EDGE_LOOP ( 'NONE', ( #61 ) ) ;
#9 = DIRECTION ( 'NONE',  ( 0.000000000000000000, 0.000000000000000000, 1.000000000000000000 ) ) ;
#10 = DIRECTION ( 'NONE',  ( 0.000000000000000000, 0.000000000000000000, 1.000000000000000000 ) ) ;
#11 = ADVANCED_FACE ( 'NONE', ( #6 ), #112, .T. ) ;
#12 =( LENGTH_UNIT ( ) NAMED_UNIT ( * ) SI_UNIT ( .MILLI., .METRE. ) );
#13 = DIRECTION ( 'NONE',  ( 0.000000000000000000, 0.000000000000000000, 1.000000000000000000 ) ) ;
#14 = CIRCLE ( 'NONE', #56, 6.500000000000000888 ) ;
#15 = CARTESIAN_POINT ( 'NONE',  ( -75.00000000000000000, -19.99999999999999645, 0.000000000000000000 ) ) ;
#16 = SURFACE_SIDE_STYLE ('',( #141 ) ) ;
#17 = DIRECTION ( 'NONE',  ( 1.000000000000000000, 0.000000000000000000, 0.000000000000000000 ) ) ;
#18 = AXIS2_PLACEMENT_3D ( 'NONE', #99, #107, #152 ) ;
#19 = FILL_AREA_STYLE_COLOUR ( '', #95 ) ;
#20 = EDGE_CURVE ( 'NONE', #190, #190, #281, .T. ) ;
#21 = UNCERTAINTY_MEASURE_WITH_UNIT (LENGTH_MEASURE( 1.000000000000000082E-05 ), #150, 'distance_accuracy_value', 'NONE');
#22 = DIRECTION ( 'NONE',  ( 0.000000000000000000, 0.000000000000000000, 1.000000000000000000 ) ) ;
#23 = AXIS2_PLACEMENT_3D ( 'NONE', #337, #74, #198 ) ;
#24 = VERTEX_POINT ( 'NONE', #330 ) ;
#25 = APPLICATION_PROTOCOL_DEFINITION ( 'draft international standard', 'automotive_design', 1998, #344 ) ;
#26 = ORIENTED_EDGE ( 'NONE', *, *, #144, .F. ) ;
#27 = VECTOR ( 'NONE', #37, 1000.000000000000000 ) ;
#28 = FACE_OUTER_BOUND ( 'NONE', #308, .T. ) ;
#29 = VERTEX_POINT ( 'NONE', #38 ) ;
#30 = VERTEX_POINT ( 'NONE', #315 ) ;
#31 = FACE_BOUND ( 'NONE', #69, .T. ) ;
#32 = EDGE_LOOP ( 'NONE', ( #191, #244, #109, #59 ) ) ;
#33 = ORIENTED_EDGE ( 'NONE', *, *, #283, .T. ) ;
#34 = CARTESIAN_POINT ( 'NONE',  ( -75.00000000000000000, 20.00000000000000355, -4.000000000000000000 ) ) ;
#35 = DIRECTION ( 'NONE',  ( 0.000000000000000000, 0.000000000000000000, 1.000000000000000000 ) ) ;
#36 = CARTESIAN_POINT ( 'NONE',  ( -6.938893903907228378E-15, 3.469446951953614189E-15, 0.000000000000000000 ) ) ;
#37 = DIRECTION ( 'NONE',  ( 1.000000000000000000, 0.000000000000000000, 0.000000000000000000 ) ) ;
#38 = CARTESIAN_POINT ( 'NONE',  ( -75.00000000000000000, -19.99999999999999645, -4.000000000000000000 ) ) ;
#39 = CARTESIAN_POINT ( 'NONE',  ( -75.00000000000000000, -19.99999999999999645, 0.000000000000000000 ) ) ;
#40 = VECTOR ( 'NONE', #145, 1000.000000000000000 ) ;
#41 = SURFACE_SIDE_STYLE ('',( #117 ) ) ;
#42 = VECTOR ( 'NONE', #212, 1000.000000000000000 ) ;
#43 = PRODUCT_DEFINITION_CONTEXT ( 'detailed design', #344, 'design' ) ;
#44 = EDGE_LOOP ( 'NONE', ( #86 ) ) ;
#45 = FACE_OUTER_BOUND ( 'NONE', #8, .T. ) ;
#46 = LINE ( 'NONE', #151, #72 ) ;
#47 = FILL_AREA_STYLE_COLOUR ( '', #282 ) ;
#48 = VECTOR ( 'NONE', #22, 1000.000000000000000 ) ;
#49 = ADVANCED_FACE ( 'NONE', ( #94, #119 ), #224, .F. ) ;
#50 = CARTESIAN_POINT ( 'NONE',  ( -43.50000000000000000, 0.000000000000000000, -4.000000000000000000 ) ) ;
#51 = EDGE_LOOP ( 'NONE', ( #138 ) ) ;
#52 = PLANE ( 'NONE',  #5 ) ;
#53 = VERTEX_POINT ( 'NONE', #303 ) ;
#54 = COLOUR_RGB ( '',0.7529411764705882248, 0.7529411764705882248, 0.7529411764705882248 ) ;
#55 =( NAMED_UNIT ( * ) PLANE_ANGLE_UNIT ( ) SI_UNIT ( $, .RADIAN. ) );
#56 = AXIS2_PLACEMENT_3D ( 'NONE', #299, #217, #4 ) ;
#57 =( NAMED_UNIT ( * ) PLANE_ANGLE_UNIT ( ) SI_UNIT ( $, .RADIAN. ) );
#58 = FILL_AREA_STYLE ('',( #273 ) ) ;
#59 = ORIENTED_EDGE ( 'NONE', *, *, #75, .T. ) ;
#60 = PLANE ( 'NONE',  #347 ) ;
#61 = ORIENTED_EDGE ( 'NONE', *, *, #96, .F. ) ;
#62 = CARTESIAN_POINT ( 'NONE',  ( -75.00000000000000000, 20.00000000000000355, -4.000000000000000000 ) ) ;
#63 =( NAMED_UNIT ( * ) PLANE_ANGLE_UNIT ( ) SI_UNIT ( $, .RADIAN. ) );
#64 =( NAMED_UNIT ( * ) SI_UNIT ( $, .STERADIAN. ) SOLID_ANGLE_UNIT ( ) );
#65 = CARTESIAN_POINT ( 'NONE',  ( 74.99999999999998579, 20.00000000000000355, -4.000000000000000000 ) ) ;
#66 = EDGE_CURVE ( 'NONE', #264, #259, #219, .T. ) ;
#67 =( GEOMETRIC_REPRESENTATION_CONTEXT ( 3 ) GLOBAL_UNCERTAINTY_ASSIGNED_CONTEXT ( ( #225 ) ) GLOBAL_UNIT_ASSIGNED_CONTEXT ( ( #297, #57, #104 ) ) REPRESENTATION_CONTEXT ( 'NONE', 'WORKASPACE' ) );
#68 = DIRECTION ( 'NONE',  ( 1.000000000000000000, 0.000000000000000000, 0.000000000000000000 ) ) ;
#69 = EDGE_LOOP ( 'NONE', ( #336 ) ) ;
#70 = FILL_AREA_STYLE ('',( #309 ) ) ;
#71 = VECTOR ( 'NONE', #131, 1000.000000000000000 ) ;
#72 = VECTOR ( 'NONE', #73, 1000.000000000000000 ) ;
#73 = DIRECTION ( 'NONE',  ( -1.000000000000000000, -0.000000000000000000, -0.000000000000000000 ) ) ;
#74 = DIRECTION ( 'NONE',  ( 0.000000000000000000, 0.000000000000000000, 1.000000000000000000 ) ) ;
#75 = EDGE_CURVE ( 'NONE', #319, #24, #170, .T. ) ;
#76 = APPLICATION_PROTOCOL_DEFINITION ( 'draft international standard', 'automotive_design', 1998, #329 ) ;
#77 = ORIENTED_EDGE ( 'NONE', *, *, #234, .F. ) ;
#78 = CARTESIAN_POINT ( 'NONE',  ( -75.00000000000000000, -19.99999999999999645, -4.000000000000000000 ) ) ;
#79 = ORIENTED_EDGE ( 'NONE', *, *, #343, .T. ) ;
#80 = CARTESIAN_POINT ( 'NONE',  ( 6.499999999999993783, 3.469446951953614189E-15, 0.000000000000000000 ) ) ;
#81 = SURFACE_STYLE_FILL_AREA ( #58 ) ;
#82 = EDGE_LOOP ( 'NONE', ( #115 ) ) ;
#83 = AXIS2_PLACEMENT_3D ( 'NONE', #298, #290, #332 ) ;
#84 = MECHANICAL_DESIGN_GEOMETRIC_PRESENTATION_REPRESENTATION (  '', ( #339 ), #120 ) ;
#85 = SURFACE_STYLE_USAGE ( .BOTH. , #267 ) ;
#86 = ORIENTED_EDGE ( 'NONE', *, *, #234, .T. ) ;
#87 = SHAPE_DEFINITION_REPRESENTATION ( #163, #180 ) ;
#88 = CARTESIAN_POINT ( 'NONE',  ( 50.00000000000000000, 1.224646799147353217E-14, 0.000000000000000000 ) ) ;
#89 = VERTEX_POINT ( 'NONE', #15 ) ;
#90 = FACE_BOUND ( 'NONE', #106, .T. ) ;
#91 = PRESENTATION_STYLE_ASSIGNMENT (( #274 ) ) ;
#92 = PRESENTATION_STYLE_ASSIGNMENT (( #121 ) ) ;
#93 = PRESENTATION_STYLE_ASSIGNMENT (( #287 ) ) ;
#94 = FACE_OUTER_BOUND ( 'NONE', #136, .T. ) ;
#95 = COLOUR_RGB ( '',0.7529411764705882248, 0.7529411764705882248, 0.7529411764705882248 ) ;
#96 = EDGE_CURVE ( 'NONE', #289, #289, #196, .T. ) ;
#97 = COLOUR_RGB ( '',0.7529411764705882248, 0.7529411764705882248, 0.7529411764705882248 ) ;
#98 =( NAMED_UNIT ( * ) PLANE_ANGLE_UNIT ( ) SI_UNIT ( $, .RADIAN. ) );
#99 = CARTESIAN_POINT ( 'NONE',  ( 0.000000000000000000, 0.000000000000000000, 0.000000000000000000 ) ) ;
#100 = CARTESIAN_POINT ( 'NONE',  ( 6.499999999999993783, 3.469446951953614189E-15, -4.000000000000000000 ) ) ;
#101 = AXIS2_PLACEMENT_3D ( 'NONE', #122, #10, #68 ) ;
#102 = ORIENTED_EDGE ( 'NONE', *, *, #20, .T. ) ;
#103 = CARTESIAN_POINT ( 'NONE',  ( -75.00000000000000000, -19.99999999999999645, -4.000000000000000000 ) ) ;
#104 =( NAMED_UNIT ( * ) SI_UNIT ( $, .STERADIAN. ) SOLID_ANGLE_UNIT ( ) );
#105 = EDGE_CURVE ( 'NONE', #24, #89, #173, .T. ) ;
#106 = EDGE_LOOP ( 'NONE', ( #213 ) ) ;
#107 = DIRECTION ( 'NONE',  ( 0.000000000000000000, 0.000000000000000000, 1.000000000000000000 ) ) ;
#108 = DIRECTION ( 'NONE',  ( 0.000000000000000000, -0.000000000000000000, 1.000000000000000000 ) ) ;
#109 = ORIENTED_EDGE ( 'NONE', *, *, #304, .T. ) ;
#110 = STYLED_ITEM ( 'NONE', ( #271 ), #209 ) ;
#111 = DIRECTION ( 'NONE',  ( 1.000000000000000000, 0.000000000000000000, 0.000000000000000000 ) ) ;
#112 = PLANE ( 'NONE',  #83 ) ;
#113 = EDGE_CURVE ( 'NONE', #319, #29, #348, .T. ) ;
#114 = DIRECTION ( 'NONE',  ( 1.000000000000000000, 0.000000000000000000, 0.000000000000000000 ) ) ;
#115 = ORIENTED_EDGE ( 'NONE', *, *, #168, .T. ) ;
#116 = CARTESIAN_POINT ( 'NONE',  ( -50.00000000000000000, 0.000000000000000000, 0.000000000000000000 ) ) ;
#117 = SURFACE_STYLE_FILL_AREA ( #256 ) ;
#118 = DIRECTION ( 'NONE',  ( 0.000000000000000000, -1.000000000000000000, 0.000000000000000000 ) ) ;
#119 = FACE_OUTER_BOUND ( 'NONE', #44, .T. ) ;
#120 =( GEOMETRIC_REPRESENTATION_CONTEXT ( 3 ) GLOBAL_UNCERTAINTY_ASSIGNED_CONTEXT ( ( #307 ) ) GLOBAL_UNIT_ASSIGNED_CONTEXT ( ( #317, #55, #245 ) ) REPRESENTATION_CONTEXT ( 'NONE', 'WORKASPACE' ) );
#121 = SURFACE_STYLE_USAGE ( .BOTH. , #148 ) ;
#122 = CARTESIAN_POINT ( 'NONE',  ( -50.00000000000000000, 0.000000000000000000, -4.000000000000000000 ) ) ;
#123 = LINE ( 'NONE', #39, #27 ) ;
#124 = AXIS2_PLACEMENT_3D ( 'NONE', #327, #1, #108 ) ;
#125 = LINE ( 'NONE', #202, #197 ) ;
#126 = AXIS2_PLACEMENT_3D ( 'NONE', #275, #142, #17 ) ;
#127 = CARTESIAN_POINT ( 'NONE',  ( 56.50000000000000711, 1.224646799147353217E-14, 0.000000000000000000 ) ) ;
#128 = ORIENTED_EDGE ( 'NONE', *, *, #113, .F. ) ;
#129 = VERTEX_POINT ( 'NONE', #100 ) ;
#130 = COLOUR_RGB ( '',0.7529411764705882248, 0.7529411764705882248, 0.7529411764705882248 ) ;
#131 = DIRECTION ( 'NONE',  ( -0.000000000000000000, 1.000000000000000000, -0.000000000000000000 ) ) ;
#132 = CARTESIAN_POINT ( 'NONE',  ( 74.99999999999998579, 20.00000000000000355, 0.000000000000000000 ) ) ;
#133 = VERTEX_POINT ( 'NONE', #132 ) ;
#134 = VERTEX_POINT ( 'NONE', #127 ) ;
#135 = FACE_BOUND ( 'NONE', #326, .T. ) ;
#136 = EDGE_LOOP ( 'NONE', ( #250 ) ) ;
#137 = PRESENTATION_LAYER_ASSIGNMENT (  '', '', ( #110 ) ) ;
#138 = ORIENTED_EDGE ( 'NONE', *, *, #168, .F. ) ;
#139 = DIRECTION ( 'NONE',  ( -1.000000000000000000, 0.000000000000000000, 0.000000000000000000 ) ) ;
#140 = DIRECTION ( 'NONE',  ( 0.000000000000000000, -1.000000000000000000, 0.000000000000000000 ) ) ;
#141 = SURFACE_STYLE_FILL_AREA ( #305 ) ;
#142 = DIRECTION ( 'NONE',  ( -0.000000000000000000, -0.000000000000000000, 1.000000000000000000 ) ) ;
#143 = MECHANICAL_DESIGN_GEOMETRIC_PRESENTATION_REPRESENTATION (  '', ( #334 ), #331 ) ;
#144 = EDGE_CURVE ( 'NONE', #129, #129, #14, .T. ) ;
#145 = DIRECTION ( 'NONE',  ( -0.000000000000000000, 1.000000000000000000, -0.000000000000000000 ) ) ;
#146 = MECHANICAL_DESIGN_GEOMETRIC_PRESENTATION_REPRESENTATION (  '', ( #312 ), #324 ) ;
#147 =( GEOMETRIC_REPRESENTATION_CONTEXT ( 3 ) GLOBAL_UNCERTAINTY_ASSIGNED_CONTEXT ( ( #21 ) ) GLOBAL_UNIT_ASSIGNED_CONTEXT ( ( #150, #98, #64 ) ) REPRESENTATION_CONTEXT ( 'NONE', 'WORKASPACE' ) );
#148 = SURFACE_SIDE_STYLE ('',( #314 ) ) ;
#149 = VECTOR ( 'NONE', #140, 1000.000000000000000 ) ;
#150 =( LENGTH_UNIT ( ) NAMED_UNIT ( * ) SI_UNIT ( .MILLI., .METRE. ) );
#151 = CARTESIAN_POINT ( 'NONE',  ( -75.00000000000000000, 20.00000000000000355, -4.000000000000000000 ) ) ;
#152 = DIRECTION ( 'NONE',  ( 1.000000000000000000, 0.000000000000000000, 0.000000000000000000 ) ) ;
#153 = ADVANCED_FACE ( 'NONE', ( #166, #31, #135, #269 ), #60, .F. ) ;
#154 = PRODUCT_CONTEXT ( 'NONE', #329, 'mechanical' ) ;
#155 = ORIENTED_EDGE ( 'NONE', *, *, #96, .T. ) ;
#156 = PRESENTATION_STYLE_ASSIGNMENT (( #242 ) ) ;
#157 = CARTESIAN_POINT ( 'NONE',  ( -75.00000000000000000, -19.99999999999999645, -4.000000000000000000 ) ) ;
#158 = VECTOR ( 'NONE', #277, 1000.000000000000000 ) ;
#159 = AXIS2_PLACEMENT_3D ( 'NONE', #302, #286, #172 ) ;
#160 = EDGE_LOOP ( 'NONE', ( #216, #322, #128, #189 ) ) ;
#161 = FACE_BOUND ( 'NONE', #210, .T. ) ;
#162 = ORIENTED_EDGE ( 'NONE', *, *, #2, .T. ) ;
#163 = PRODUCT_DEFINITION_SHAPE ( 'NONE', 'NONE',  #335 ) ;
#164 = ORIENTED_EDGE ( 'NONE', *, *, #144, .T. ) ;
#165 = FACE_OUTER_BOUND ( 'NONE', #328, .T. ) ;
#166 = FACE_BOUND ( 'NONE', #293, .T. ) ;
#167 =( NAMED_UNIT ( * ) SI_UNIT ( $, .STERADIAN. ) SOLID_ANGLE_UNIT ( ) );
#168 = EDGE_CURVE ( 'NONE', #235, #235, #239, .T. ) ;
#169 = CYLINDRICAL_SURFACE ( 'NONE', #294, 6.500000000000005329 ) ;
#170 = LINE ( 'NONE', #34, #158 ) ;
#171 = CIRCLE ( 'NONE', #185, 6.500000000000005329 ) ;
#172 = DIRECTION ( 'NONE',  ( 1.000000000000000000, 0.000000000000000000, 0.000000000000000000 ) ) ;
#173 = LINE ( 'NONE', #280, #149 ) ;
#174 = UNCERTAINTY_MEASURE_WITH_UNIT (LENGTH_MEASURE( 1.000000000000000082E-05 ), #12, 'distance_accuracy_value', 'NONE');
#175 =( NAMED_UNIT ( * ) PLANE_ANGLE_UNIT ( ) SI_UNIT ( $, .RADIAN. ) );
#176 = CLOSED_SHELL ( 'NONE', ( #11, #251, #179, #228, #153, #214, #291, #49, #311 ) ) ;
#177 = FACE_OUTER_BOUND ( 'NONE', #82, .T. ) ;
#178 = SURFACE_SIDE_STYLE ('',( #341 ) ) ;
#179 = ADVANCED_FACE ( 'NONE', ( #165 ), #187, .T. ) ;
#180 = ADVANCED_BREP_SHAPE_REPRESENTATION ( '1124727', ( #209, #18 ), #201 ) ;
#181 =( LENGTH_UNIT ( ) NAMED_UNIT ( * ) SI_UNIT ( .MILLI., .METRE. ) );
#182 = ORIENTED_EDGE ( 'NONE', *, *, #296, .T. ) ;
#183 = PLANE ( 'NONE',  #124 ) ;
#184 = ORIENTED_EDGE ( 'NONE', *, *, #66, .T. ) ;
#185 = AXIS2_PLACEMENT_3D ( 'NONE', #88, #192, #292 ) ;
#186 =( NAMED_UNIT ( * ) SI_UNIT ( $, .STERADIAN. ) SOLID_ANGLE_UNIT ( ) );
#187 = PLANE ( 'NONE',  #265 ) ;
#188 = VECTOR ( 'NONE', #342, 1000.000000000000000 ) ;
#189 = ORIENTED_EDGE ( 'NONE', *, *, #304, .F. ) ;
#190 = VERTEX_POINT ( 'NONE', #80 ) ;
#191 = ORIENTED_EDGE ( 'NONE', *, *, #262, .F. ) ;
#192 = DIRECTION ( 'NONE',  ( 0.000000000000000000, 0.000000000000000000, 1.000000000000000000 ) ) ;
#193 = CARTESIAN_POINT ( 'NONE',  ( 74.99999999999998579, 20.00000000000000355, 0.000000000000000000 ) ) ;
#194 = FACE_OUTER_BOUND ( 'NONE', #345, .T. ) ;
#195 = FILL_AREA_STYLE_COLOUR ( '', #97 ) ;
#196 = CIRCLE ( 'NONE', #101, 6.500000000000005329 ) ;
#197 = VECTOR ( 'NONE', #232, 1000.000000000000000 ) ;
#198 = DIRECTION ( 'NONE',  ( 1.000000000000000000, 0.000000000000000000, 0.000000000000000000 ) ) ;
#199 = UNCERTAINTY_MEASURE_WITH_UNIT (LENGTH_MEASURE( 1.000000000000000082E-05 ), #220, 'distance_accuracy_value', 'NONE');
#200 = AXIS2_PLACEMENT_3D ( 'NONE', #36, #254, #221 ) ;
#201 =( GEOMETRIC_REPRESENTATION_CONTEXT ( 3 ) GLOBAL_UNCERTAINTY_ASSIGNED_CONTEXT ( ( #258 ) ) GLOBAL_UNIT_ASSIGNED_CONTEXT ( ( #181, #208, #186 ) ) REPRESENTATION_CONTEXT ( 'NONE', 'WORKASPACE' ) );
#202 = CARTESIAN_POINT ( 'NONE',  ( -75.00000000000000000, 20.00000000000000355, 0.000000000000000000 ) ) ;
#203 = FILL_AREA_STYLE ('',( #47 ) ) ;
#204 = PRODUCT_RELATED_PRODUCT_CATEGORY ( 'part', '', ( #237 ) ) ;
#205 = DIRECTION ( 'NONE',  ( 1.000000000000000000, 0.000000000000000000, 0.000000000000000000 ) ) ;
#206 = PRODUCT_DEFINITION_FORMATION_WITH_SPECIFIED_SOURCE ( 'ANY', '', #237, .NOT_KNOWN. ) ;
#207 = ORIENTED_EDGE ( 'NONE', *, *, #105, .F. ) ;
#208 =( NAMED_UNIT ( * ) PLANE_ANGLE_UNIT ( ) SI_UNIT ( $, .RADIAN. ) );
#209 = MANIFOLD_SOLID_BREP ( 'Extrude1', #176 ) ;
#210 = EDGE_LOOP ( 'NONE', ( #77 ) ) ;
#211 = CARTESIAN_POINT ( 'NONE',  ( -75.00000000000000000, 20.00000000000000355, -4.000000000000000000 ) ) ;
#212 = DIRECTION ( 'NONE',  ( 0.000000000000000000, -1.000000000000000000, 0.000000000000000000 ) ) ;
#213 = ORIENTED_EDGE ( 'NONE', *, *, #20, .F. ) ;
#214 = ADVANCED_FACE ( 'NONE', ( #249, #161, #90, #194 ), #7, .T. ) ;
#215 = DIRECTION ( 'NONE',  ( 1.000000000000000000, 0.000000000000000000, 0.000000000000000000 ) ) ;
#216 = ORIENTED_EDGE ( 'NONE', *, *, #66, .F. ) ;
#217 = DIRECTION ( 'NONE',  ( 0.000000000000000000, 0.000000000000000000, 1.000000000000000000 ) ) ;
#218 = EDGE_CURVE ( 'NONE', #29, #89, #301, .T. ) ;
#219 = LINE ( 'NONE', #65, #40 ) ;
#220 =( LENGTH_UNIT ( ) NAMED_UNIT ( * ) SI_UNIT ( .MILLI., .METRE. ) );
#221 = DIRECTION ( 'NONE',  ( 1.000000000000000000, 0.000000000000000000, 0.000000000000000000 ) ) ;
#222 = MECHANICAL_DESIGN_GEOMETRIC_PRESENTATION_REPRESENTATION (  '', ( #313 ), #147 ) ;
#223 = CARTESIAN_POINT ( 'NONE',  ( 74.99999999999998579, 20.00000000000000355, -4.000000000000000000 ) ) ;
#224 = CYLINDRICAL_SURFACE ( 'NONE', #126, 6.500000000000005329 ) ;
#225 = UNCERTAINTY_MEASURE_WITH_UNIT (LENGTH_MEASURE( 1.000000000000000082E-05 ), #297, 'distance_accuracy_value', 'NONE');
#226 = ORIENTED_EDGE ( 'NONE', *, *, #2, .F. ) ;
#227 = FACE_OUTER_BOUND ( 'NONE', #3, .T. ) ;
#228 = ADVANCED_FACE ( 'NONE', ( #240 ), #183, .T. ) ;
#229 = ORIENTED_EDGE ( 'NONE', *, *, #296, .F. ) ;
#230 = CARTESIAN_POINT ( 'NONE',  ( 74.99999999999998579, 20.00000000000000355, -4.000000000000000000 ) ) ;
#231 = PRESENTATION_LAYER_ASSIGNMENT (  '', '', ( #334 ) ) ;
#232 = DIRECTION ( 'NONE',  ( -1.000000000000000000, -0.000000000000000000, -0.000000000000000000 ) ) ;
#233 = PRESENTATION_LAYER_ASSIGNMENT (  '', '', ( #339 ) ) ;
#234 = EDGE_CURVE ( 'NONE', #134, #134, #171, .T. ) ;
#235 = VERTEX_POINT ( 'NONE', #236 ) ;
#236 = CARTESIAN_POINT ( 'NONE',  ( -43.50000000000000000, 0.000000000000000000, 0.000000000000000000 ) ) ;
#237 = PRODUCT ( '1124727', '1124727', '', ( #154 ) ) ;
#238 = ORIENTED_EDGE ( 'NONE', *, *, #262, .T. ) ;
#239 = CIRCLE ( 'NONE', #310, 6.500000000000005329 ) ;
#240 = FACE_OUTER_BOUND ( 'NONE', #32, .T. ) ;
#241 = ORIENTED_EDGE ( 'NONE', *, *, #278, .T. ) ;
#242 = SURFACE_STYLE_USAGE ( .BOTH. , #178 ) ;
#243 = CARTESIAN_POINT ( 'NONE',  ( 0.000000000000000000, 0.000000000000000000, 0.000000000000000000 ) ) ;
#244 = ORIENTED_EDGE ( 'NONE', *, *, #278, .F. ) ;
#245 =( NAMED_UNIT ( * ) SI_UNIT ( $, .STERADIAN. ) SOLID_ANGLE_UNIT ( ) );
#246 = DIRECTION ( 'NONE',  ( 0.000000000000000000, 0.000000000000000000, 1.000000000000000000 ) ) ;
#247 = LINE ( 'NONE', #193, #71 ) ;
#248 = VECTOR ( 'NONE', #13, 1000.000000000000000 ) ;
#249 = FACE_BOUND ( 'NONE', #51, .T. ) ;
#250 = ORIENTED_EDGE ( 'NONE', *, *, #257, .F. ) ;
#251 = ADVANCED_FACE ( 'NONE', ( #28 ), #52, .T. ) ;
#252 = DIRECTION ( 'NONE',  ( -0.000000000000000000, 0.000000000000000000, 1.000000000000000000 ) ) ;
#253 = DIRECTION ( 'NONE',  ( 0.000000000000000000, -0.000000000000000000, -1.000000000000000000 ) ) ;
#254 = DIRECTION ( 'NONE',  ( 0.000000000000000000, 0.000000000000000000, 1.000000000000000000 ) ) ;
#255 = PRESENTATION_LAYER_ASSIGNMENT (  '', '', ( #313 ) ) ;
#256 = FILL_AREA_STYLE ('',( #195 ) ) ;
#257 = EDGE_CURVE ( 'NONE', #30, #30, #261, .T. ) ;
#258 = UNCERTAINTY_MEASURE_WITH_UNIT (LENGTH_MEASURE( 1.000000000000000082E-05 ), #181, 'distance_accuracy_value', 'NONE');
#259 = VERTEX_POINT ( 'NONE', #223 ) ;
#260 = LINE ( 'NONE', #230, #48 ) ;
#261 = CIRCLE ( 'NONE', #23, 6.500000000000005329 ) ;
#262 = EDGE_CURVE ( 'NONE', #133, #24, #125, .T. ) ;
#263 = LINE ( 'NONE', #103, #188 ) ;
#264 = VERTEX_POINT ( 'NONE', #279 ) ;
#265 = AXIS2_PLACEMENT_3D ( 'NONE', #62, #139, #9 ) ;
#266 = PRESENTATION_LAYER_ASSIGNMENT (  '', '', ( #312 ) ) ;
#267 = SURFACE_SIDE_STYLE ('',( #81 ) ) ;
#268 = EDGE_LOOP ( 'NONE', ( #226, #284, #184, #241 ) ) ;
#269 = FACE_OUTER_BOUND ( 'NONE', #160, .T. ) ;
#270 = ORIENTED_EDGE ( 'NONE', *, *, #105, .T. ) ;
#271 = PRESENTATION_STYLE_ASSIGNMENT (( #85 ) ) ;
#272 = ORIENTED_EDGE ( 'NONE', *, *, #75, .F. ) ;
#273 = FILL_AREA_STYLE_COLOUR ( '', #54 ) ;
#274 = SURFACE_STYLE_USAGE ( .BOTH. , #41 ) ;
#275 = CARTESIAN_POINT ( 'NONE',  ( 50.00000000000000000, 1.224646799147353217E-14, -4.000000000000000000 ) ) ;
#276 = LINE ( 'NONE', #338, #248 ) ;
#277 = DIRECTION ( 'NONE',  ( 0.000000000000000000, 0.000000000000000000, 1.000000000000000000 ) ) ;
#278 = EDGE_CURVE ( 'NONE', #259, #133, #260, .T. ) ;
#279 = CARTESIAN_POINT ( 'NONE',  ( 74.99999999999998579, -19.99999999999999645, -4.000000000000000000 ) ) ;
#280 = CARTESIAN_POINT ( 'NONE',  ( -75.00000000000000000, 20.00000000000000355, 0.000000000000000000 ) ) ;
#281 = CIRCLE ( 'NONE', #200, 6.500000000000000888 ) ;
#282 = COLOUR_RGB ( '',0.7529411764705882248, 0.7529411764705882248, 0.7529411764705882248 ) ;
#283 = EDGE_CURVE ( 'NONE', #264, #53, #276, .T. ) ;
#284 = ORIENTED_EDGE ( 'NONE', *, *, #283, .F. ) ;
#285 = CYLINDRICAL_SURFACE ( 'NONE', #159, 6.500000000000000888 ) ;
#286 = DIRECTION ( 'NONE',  ( -0.000000000000000000, -0.000000000000000000, 1.000000000000000000 ) ) ;
#287 = SURFACE_STYLE_USAGE ( .BOTH. , #16 ) ;
#288 = AXIS2_PLACEMENT_3D ( 'NONE', #243, #252, #114 ) ;
#289 = VERTEX_POINT ( 'NONE', #50 ) ;
#290 = DIRECTION ( 'NONE',  ( 1.000000000000000000, 0.000000000000000000, -0.000000000000000000 ) ) ;
#291 = ADVANCED_FACE ( 'NONE', ( #227, #340 ), #285, .F. ) ;
#292 = DIRECTION ( 'NONE',  ( 1.000000000000000000, 0.000000000000000000, 0.000000000000000000 ) ) ;
#293 = EDGE_LOOP ( 'NONE', ( #155 ) ) ;
#294 = AXIS2_PLACEMENT_3D ( 'NONE', #346, #323, #205 ) ;
#295 = ORIENTED_EDGE ( 'NONE', *, *, #113, .T. ) ;
#296 = EDGE_CURVE ( 'NONE', #89, #53, #123, .T. ) ;
#297 =( LENGTH_UNIT ( ) NAMED_UNIT ( * ) SI_UNIT ( .MILLI., .METRE. ) );
#298 = CARTESIAN_POINT ( 'NONE',  ( 74.99999999999998579, 20.00000000000000355, -4.000000000000000000 ) ) ;
#299 = CARTESIAN_POINT ( 'NONE',  ( -6.938893903907228378E-15, 3.469446951953614189E-15, -4.000000000000000000 ) ) ;
#300 = EDGE_LOOP ( 'NONE', ( #102 ) ) ;
#301 = LINE ( 'NONE', #78, #321 ) ;
#302 = CARTESIAN_POINT ( 'NONE',  ( -6.938893903907228378E-15, 3.469446951953614189E-15, -4.000000000000000000 ) ) ;
#303 = CARTESIAN_POINT ( 'NONE',  ( 74.99999999999998579, -19.99999999999999645, 0.000000000000000000 ) ) ;
#304 = EDGE_CURVE ( 'NONE', #259, #319, #46, .T. ) ;
#305 = FILL_AREA_STYLE ('',( #19 ) ) ;
#306 = MECHANICAL_DESIGN_GEOMETRIC_PRESENTATION_REPRESENTATION (  '', ( #110 ), #67 ) ;
#307 = UNCERTAINTY_MEASURE_WITH_UNIT (LENGTH_MEASURE( 1.000000000000000082E-05 ), #317, 'distance_accuracy_value', 'NONE');
#308 = EDGE_LOOP ( 'NONE', ( #229, #316, #79, #33 ) ) ;
#309 = FILL_AREA_STYLE_COLOUR ( '', #130 ) ;
#310 = AXIS2_PLACEMENT_3D ( 'NONE', #116, #246, #215 ) ;
#311 = ADVANCED_FACE ( 'NONE', ( #45, #177 ), #169, .F. ) ;
#312 = STYLED_ITEM ( 'NONE', ( #91 ), #49 ) ;
#313 = STYLED_ITEM ( 'NONE', ( #92 ), #311 ) ;
#314 = SURFACE_STYLE_FILL_AREA ( #70 ) ;
#315 = CARTESIAN_POINT ( 'NONE',  ( 56.50000000000000711, 1.224646799147353217E-14, -4.000000000000000000 ) ) ;
#316 = ORIENTED_EDGE ( 'NONE', *, *, #218, .F. ) ;
#317 =( LENGTH_UNIT ( ) NAMED_UNIT ( * ) SI_UNIT ( .MILLI., .METRE. ) );
#318 = CARTESIAN_POINT ( 'NONE',  ( -75.00000000000000000, 20.00000000000000355, -4.000000000000000000 ) ) ;
#319 = VERTEX_POINT ( 'NONE', #211 ) ;
#320 = DIRECTION ( 'NONE',  ( -0.000000000000000000, 0.000000000000000000, 1.000000000000000000 ) ) ;
#321 = VECTOR ( 'NONE', #35, 1000.000000000000000 ) ;
#322 = ORIENTED_EDGE ( 'NONE', *, *, #343, .F. ) ;
#323 = DIRECTION ( 'NONE',  ( -0.000000000000000000, -0.000000000000000000, 1.000000000000000000 ) ) ;
#324 =( GEOMETRIC_REPRESENTATION_CONTEXT ( 3 ) GLOBAL_UNCERTAINTY_ASSIGNED_CONTEXT ( ( #174 ) ) GLOBAL_UNIT_ASSIGNED_CONTEXT ( ( #12, #63, #167 ) ) REPRESENTATION_CONTEXT ( 'NONE', 'WORKASPACE' ) );
#325 = CARTESIAN_POINT ( 'NONE',  ( 0.000000000000000000, 0.000000000000000000, -4.000000000000000000 ) ) ;
#326 = EDGE_LOOP ( 'NONE', ( #164 ) ) ;
#327 = CARTESIAN_POINT ( 'NONE',  ( -75.00000000000000000, 20.00000000000000355, -4.000000000000000000 ) ) ;
#328 = EDGE_LOOP ( 'NONE', ( #207, #272, #295, #349 ) ) ;
#329 = APPLICATION_CONTEXT ( 'automotive_design' ) ;
#330 = CARTESIAN_POINT ( 'NONE',  ( -75.00000000000000000, 20.00000000000000355, 0.000000000000000000 ) ) ;
#331 =( GEOMETRIC_REPRESENTATION_CONTEXT ( 3 ) GLOBAL_UNCERTAINTY_ASSIGNED_CONTEXT ( ( #199 ) ) GLOBAL_UNIT_ASSIGNED_CONTEXT ( ( #220, #175, #333 ) ) REPRESENTATION_CONTEXT ( 'NONE', 'WORKASPACE' ) );
#332 = DIRECTION ( 'NONE',  ( -0.000000000000000000, 0.000000000000000000, -1.000000000000000000 ) ) ;
#333 =( NAMED_UNIT ( * ) SI_UNIT ( $, .STERADIAN. ) SOLID_ANGLE_UNIT ( ) );
#334 = STYLED_ITEM ( 'NONE', ( #93 ), #291 ) ;
#335 = PRODUCT_DEFINITION ( 'UNKNOWN', '', #206, #43 ) ;
#336 = ORIENTED_EDGE ( 'NONE', *, *, #257, .T. ) ;
#337 = CARTESIAN_POINT ( 'NONE',  ( 50.00000000000000000, 1.224646799147353217E-14, -4.000000000000000000 ) ) ;
#338 = CARTESIAN_POINT ( 'NONE',  ( 74.99999999999998579, -19.99999999999999645, -4.000000000000000000 ) ) ;
#339 = STYLED_ITEM ( 'NONE', ( #156 ), #180 ) ;
#340 = FACE_OUTER_BOUND ( 'NONE', #300, .T. ) ;
#341 = SURFACE_STYLE_FILL_AREA ( #203 ) ;
#342 = DIRECTION ( 'NONE',  ( 1.000000000000000000, 0.000000000000000000, 0.000000000000000000 ) ) ;
#343 = EDGE_CURVE ( 'NONE', #29, #264, #263, .T. ) ;
#344 = APPLICATION_CONTEXT ( 'automotive_design' ) ;
#345 = EDGE_LOOP ( 'NONE', ( #162, #238, #270, #182 ) ) ;
#346 = CARTESIAN_POINT ( 'NONE',  ( -50.00000000000000000, 0.000000000000000000, -4.000000000000000000 ) ) ;
#347 = AXIS2_PLACEMENT_3D ( 'NONE', #325, #320, #111 ) ;
#348 = LINE ( 'NONE', #318, #42 ) ;
#349 = ORIENTED_EDGE ( 'NONE', *, *, #218, .T. ) ;
ENDSEC;
END-ISO-10303-21;
