ISO-10303-21;
HEADER;
FILE_DESCRIPTION (( 'STEP AP214' ),
    '1' );
FILE_NAME ('1147016.STP',
    '2017-04-07T06:49:16',
    ( '' ),
    ( '' ),
    'SwSTEP 2.0',
    'SolidWorks 2016',
    '' );
FILE_SCHEMA (( 'AUTOMOTIVE_DESIGN' ));
ENDSEC;

DATA;
#1 = ORIENTED_EDGE ( 'NONE', *, *, #93, .T. ) ;
#2 = ORIENTED_EDGE ( 'NONE', *, *, #262, .T. ) ;
#3 = ORIENTED_EDGE ( 'NONE', *, *, #95, .F. ) ;
#4 = EDGE_LOOP ( 'NONE', ( #240, #136, #13, #2 ) ) ;
#5 = EDGE_CURVE ( 'NONE', #122, #237, #171, .T. ) ;
#6 = COLOUR_RGB ( '',0.5294117647058823600, 0.5490196078431373000, 0.5490196078431373000 ) ;
#7 = PRODUCT_DEFINITION_FORMATION_WITH_SPECIFIED_SOURCE ( 'ANY', '', #174, .NOT_KNOWN. ) ;
#8 = VERTEX_POINT ( 'NONE', #232 ) ;
#9 = ORIENTED_EDGE ( 'NONE', *, *, #89, .F. ) ;
#10 = ORIENTED_EDGE ( 'NONE', *, *, #86, .F. ) ;
#11 =( GEOMETRIC_REPRESENTATION_CONTEXT ( 3 ) GLOBAL_UNCERTAINTY_ASSIGNED_CONTEXT ( ( #177 ) ) GLOBAL_UNIT_ASSIGNED_CONTEXT ( ( #128, #25, #241 ) ) REPRESENTATION_CONTEXT ( 'NONE', 'WORKASPACE' ) );
#12 =( NAMED_UNIT ( * ) PLANE_ANGLE_UNIT ( ) SI_UNIT ( $, .RADIAN. ) );
#13 = ORIENTED_EDGE ( 'NONE', *, *, #5, .F. ) ;
#14 = DIRECTION ( 'NONE',  ( -0.3826834323650936700, -0.0000000000000000000, 0.9238795325112850700 ) ) ;
#15 = CARTESIAN_POINT ( 'NONE',  ( 3.061616997868382600E-016, 0.0000000000000000000, 2.499999999999999600 ) ) ;
#16 = DIRECTION ( 'NONE',  ( 0.3826834323650940000, 0.0000000000000000000, -0.9238795325112849600 ) ) ;
#17 = LINE ( 'NONE', #18, #228 ) ;
#18 = CARTESIAN_POINT ( 'NONE',  ( 11.37495490494412600, 4.000000000000000000, -5.250000000000000900 ) ) ;
#19 = ORIENTED_EDGE ( 'NONE', *, *, #43, .F. ) ;
#20 = DIRECTION ( 'NONE',  ( 1.000000000000000000, 0.0000000000000000000, 4.713751511828835900E-017 ) ) ;
#21 = DIRECTION ( 'NONE',  ( 0.0000000000000000000, -0.0000000000000000000, -1.000000000000000000 ) ) ;
#22 = AXIS2_PLACEMENT_3D ( 'NONE', #72, #75, #88 ) ;
#23 = CARTESIAN_POINT ( 'NONE',  ( -11.37495490494416100, 4.000000000000000000, 5.250000000000008000 ) ) ;
#24 = EDGE_LOOP ( 'NONE', ( #1, #168, #176, #56 ) ) ;
#25 =( NAMED_UNIT ( * ) PLANE_ANGLE_UNIT ( ) SI_UNIT ( $, .RADIAN. ) );
#26 = ORIENTED_EDGE ( 'NONE', *, *, #159, .F. ) ;
#27 = VERTEX_POINT ( 'NONE', #130 ) ;
#28 = VERTEX_POINT ( 'NONE', #153 ) ;
#29 = DIRECTION ( 'NONE',  ( -1.000000000000000000, 0.0000000000000000000, -4.713751511828835900E-017 ) ) ;
#30 = VECTOR ( 'NONE', #147, 1000.000000000000100 ) ;
#31 = LINE ( 'NONE', #214, #190 ) ;
#32 = EDGE_LOOP ( 'NONE', ( #92, #115, #3, #135 ) ) ;
#33 = ORIENTED_EDGE ( 'NONE', *, *, #180, .F. ) ;
#34 = FACE_OUTER_BOUND ( 'NONE', #32, .T. ) ;
#35 =( NAMED_UNIT ( * ) SI_UNIT ( $, .STERADIAN. ) SOLID_ANGLE_UNIT ( ) );
#36 = CARTESIAN_POINT ( 'NONE',  ( 0.0000000000000000000, 0.0000000000000000000, -2.499999999999999600 ) ) ;
#37 = AXIS2_PLACEMENT_3D ( 'NONE', #142, #195, #210 ) ;
#38 = ORIENTED_EDGE ( 'NONE', *, *, #5, .T. ) ;
#39 = EDGE_CURVE ( 'NONE', #28, #122, #117, .T. ) ;
#40 = SURFACE_SIDE_STYLE ('',( #264 ) ) ;
#41 = CARTESIAN_POINT ( 'NONE',  ( 0.0000000000000000000, 4.000000000000000000, -2.499999999999999600 ) ) ;
#42 = CARTESIAN_POINT ( 'NONE',  ( 7.025712500026568100, 0.0000000000000000000, 5.250000000000008900 ) ) ;
#43 = EDGE_CURVE ( 'NONE', #172, #59, #62, .T. ) ;
#44 = PLANE ( 'NONE',  #258 ) ;
#45 = DIRECTION ( 'NONE',  ( 0.0000000000000000000, 0.0000000000000000000, -1.000000000000000000 ) ) ;
#46 = DIRECTION ( 'NONE',  ( 1.000000000000000000, 0.0000000000000000000, 4.713751511828835900E-017 ) ) ;
#47 = CYLINDRICAL_SURFACE ( 'NONE', #37, 2.499999999999999600 ) ;
#48 = APPLICATION_CONTEXT ( 'automotive_design' ) ;
#49 = VERTEX_POINT ( 'NONE', #226 ) ;
#50 = FACE_OUTER_BOUND ( 'NONE', #109, .T. ) ;
#51 = VERTEX_POINT ( 'NONE', #112 ) ;
#52 = DIRECTION ( 'NONE',  ( 1.000000000000000000, 0.0000000000000000000, 0.0000000000000000000 ) ) ;
#53 = CARTESIAN_POINT ( 'NONE',  ( 7.025712500026568100, 4.000000000000000000, 5.250000000000008900 ) ) ;
#54 = AXIS2_PLACEMENT_3D ( 'NONE', #269, #217, #29 ) ;
#55 = LINE ( 'NONE', #251, #81 ) ;
#56 = ORIENTED_EDGE ( 'NONE', *, *, #132, .T. ) ;
#57 = DIRECTION ( 'NONE',  ( -0.9238795325112850700, 0.0000000000000000000, -0.3826834323650940000 ) ) ;
#58 = AXIS2_PLACEMENT_3D ( 'NONE', #266, #194, #45 ) ;
#59 = VERTEX_POINT ( 'NONE', #87 ) ;
#60 = DIRECTION ( 'NONE',  ( 0.0000000000000000000, 0.0000000000000000000, -1.000000000000000000 ) ) ;
#61 =( NAMED_UNIT ( * ) PLANE_ANGLE_UNIT ( ) SI_UNIT ( $, .RADIAN. ) );
#62 = CIRCLE ( 'NONE', #239, 2.499999999999999600 ) ;
#63 = ORIENTED_EDGE ( 'NONE', *, *, #245, .F. ) ;
#64 = FILL_AREA_STYLE_COLOUR ( '', #193 ) ;
#65 = CYLINDRICAL_SURFACE ( 'NONE', #22, 2.499999999999999600 ) ;
#66 = VECTOR ( 'NONE', #46, 1000.000000000000000 ) ;
#67 = DIRECTION ( 'NONE',  ( -0.0000000000000000000, -1.000000000000000000, -0.0000000000000000000 ) ) ;
#68 = SURFACE_STYLE_FILL_AREA ( #160 ) ;
#69 = CARTESIAN_POINT ( 'NONE',  ( -11.37495490494416100, 0.0000000000000000000, 5.250000000000008000 ) ) ;
#70 = LINE ( 'NONE', #156, #227 ) ;
#71 = FACE_OUTER_BOUND ( 'NONE', #24, .T. ) ;
#72 = CARTESIAN_POINT ( 'NONE',  ( 0.0000000000000000000, 0.0000000000000000000, -0.0000000000000000000 ) ) ;
#73 = FACE_OUTER_BOUND ( 'NONE', #4, .T. ) ;
#74 = VERTEX_POINT ( 'NONE', #42 ) ;
#75 = DIRECTION ( 'NONE',  ( -0.0000000000000000000, -1.000000000000000000, -0.0000000000000000000 ) ) ;
#76 = PRODUCT_DEFINITION_CONTEXT ( 'detailed design', #270, 'design' ) ;
#77 = DIRECTION ( 'NONE',  ( -0.3826834323650939500, 0.0000000000000000000, 0.9238795325112849600 ) ) ;
#78 = CIRCLE ( 'NONE', #58, 2.500000000000000000 ) ;
#79 = FILL_AREA_STYLE ('',( #170 ) ) ;
#80 = VERTEX_POINT ( 'NONE', #208 ) ;
#81 = VECTOR ( 'NONE', #90, 1000.000000000000000 ) ;
#82 = VECTOR ( 'NONE', #146, 1000.000000000000200 ) ;
#83 = LINE ( 'NONE', #259, #254 ) ;
#84 = VERTEX_POINT ( 'NONE', #247 ) ;
#85 = SHAPE_DEFINITION_REPRESENTATION ( #187, #141 ) ;
#86 = EDGE_CURVE ( 'NONE', #59, #8, #205, .T. ) ;
#87 = CARTESIAN_POINT ( 'NONE',  ( 3.061616997868382600E-016, 4.000000000000000000, 2.499999999999999600 ) ) ;
#88 = DIRECTION ( 'NONE',  ( 0.0000000000000000000, 0.0000000000000000000, -1.000000000000000000 ) ) ;
#89 = EDGE_CURVE ( 'NONE', #8, #49, #78, .T. ) ;
#90 = DIRECTION ( 'NONE',  ( -1.000000000000000000, -0.0000000000000000000, 5.185126663011717600E-016 ) ) ;
#91 = PLANE ( 'NONE',  #213 ) ;
#92 = ORIENTED_EDGE ( 'NONE', *, *, #159, .T. ) ;
#93 = EDGE_CURVE ( 'NONE', #80, #27, #31, .T. ) ;
#94 = ORIENTED_EDGE ( 'NONE', *, *, #209, .T. ) ;
#95 = EDGE_CURVE ( 'NONE', #84, #28, #272, .T. ) ;
#96 = VECTOR ( 'NONE', #148, 1000.000000000000000 ) ;
#97 = EDGE_LOOP ( 'NONE', ( #223, #26, #63, #188 ) ) ;
#98 = SURFACE_STYLE_USAGE ( .BOTH. , #268 ) ;
#99 = PRESENTATION_STYLE_ASSIGNMENT (( #249 ) ) ;
#100 = PRODUCT_CONTEXT ( 'NONE', #48, 'mechanical' ) ;
#101 = MANIFOLD_SOLID_BREP ( ' Gewindebohrung1', #116 ) ;
#102 = DIRECTION ( 'NONE',  ( 0.0000000000000000000, -1.000000000000000000, 0.0000000000000000000 ) ) ;
#103 = CARTESIAN_POINT ( 'NONE',  ( 0.0000000000000000000, 0.0000000000000000000, 0.0000000000000000000 ) ) ;
#104 = AXIS2_PLACEMENT_3D ( 'NONE', #225, #204, #60 ) ;
#105 = PLANE ( 'NONE',  #54 ) ;
#106 = FACE_BOUND ( 'NONE', #162, .T. ) ;
#107 = CARTESIAN_POINT ( 'NONE',  ( -7.025712500026611600, 4.000000000000000000, -5.249999999999992000 ) ) ;
#108 = AXIS2_PLACEMENT_3D ( 'NONE', #276, #67, #229 ) ;
#109 = EDGE_LOOP ( 'NONE', ( #127, #212, #129, #94 ) ) ;
#110 = ORIENTED_EDGE ( 'NONE', *, *, #275, .T. ) ;
#111 = DIRECTION ( 'NONE',  ( -0.0000000000000000000, -1.000000000000000000, -0.0000000000000000000 ) ) ;
#112 = CARTESIAN_POINT ( 'NONE',  ( 11.37495490494412600, 0.0000000000000000000, -5.250000000000000900 ) ) ;
#113 = EDGE_LOOP ( 'NONE', ( #10, #19, #244, #139 ) ) ;
#114 = EDGE_LOOP ( 'NONE', ( #221, #265, #236, #33 ) ) ;
#115 = ORIENTED_EDGE ( 'NONE', *, *, #132, .F. ) ;
#116 = CLOSED_SHELL ( 'NONE', ( #201, #199, #202, #200, #196, #197, #203, #198 ) ) ;
#117 = LINE ( 'NONE', #23, #82 ) ;
#118 =( GEOMETRIC_REPRESENTATION_CONTEXT ( 3 ) GLOBAL_UNCERTAINTY_ASSIGNED_CONTEXT ( ( #253 ) ) GLOBAL_UNIT_ASSIGNED_CONTEXT ( ( #191, #12, #246 ) ) REPRESENTATION_CONTEXT ( 'NONE', 'WORKASPACE' ) );
#119 = PRESENTATION_LAYER_ASSIGNMENT (  '', '', ( #123 ) ) ;
#120 = LINE ( 'NONE', #36, #96 ) ;
#121 = FACE_OUTER_BOUND ( 'NONE', #97, .T. ) ;
#122 = VERTEX_POINT ( 'NONE', #243 ) ;
#123 = STYLED_ITEM ( 'NONE', ( #99 ), #141 ) ;
#124 = EDGE_CURVE ( 'NONE', #27, #74, #184, .T. ) ;
#125 = PRODUCT_DEFINITION ( 'UNKNOWN', '', #7, #76 ) ;
#126 = DIRECTION ( 'NONE',  ( 0.0000000000000000000, -0.0000000000000000000, -1.000000000000000000 ) ) ;
#127 = ORIENTED_EDGE ( 'NONE', *, *, #245, .T. ) ;
#128 =( LENGTH_UNIT ( ) NAMED_UNIT ( * ) SI_UNIT ( .MILLI., .METRE. ) );
#129 = ORIENTED_EDGE ( 'NONE', *, *, #137, .F. ) ;
#130 = CARTESIAN_POINT ( 'NONE',  ( -11.37495490494416100, 0.0000000000000000000, 5.250000000000008000 ) ) ;
#131 = CARTESIAN_POINT ( 'NONE',  ( 0.0000000000000000000, 4.000000000000000000, 0.0000000000000000000 ) ) ;
#132 = EDGE_CURVE ( 'NONE', #28, #80, #175, .T. ) ;
#133 = PLANE ( 'NONE',  #192 ) ;
#134 = AXIS2_PLACEMENT_3D ( 'NONE', #151, #218, #52 ) ;
#135 = ORIENTED_EDGE ( 'NONE', *, *, #155, .T. ) ;
#136 = ORIENTED_EDGE ( 'NONE', *, *, #209, .F. ) ;
#137 = EDGE_CURVE ( 'NONE', #237, #84, #70, .T. ) ;
#138 = LINE ( 'NONE', #274, #233 ) ;
#139 = ORIENTED_EDGE ( 'NONE', *, *, #250, .T. ) ;
#140 = AXIS2_PLACEMENT_3D ( 'NONE', #238, #242, #185 ) ;
#141 = ADVANCED_BREP_SHAPE_REPRESENTATION ( '1147016', ( #101, #134 ), #166 ) ;
#142 = CARTESIAN_POINT ( 'NONE',  ( 0.0000000000000000000, 0.0000000000000000000, -0.0000000000000000000 ) ) ;
#143 = CARTESIAN_POINT ( 'NONE',  ( 7.025712500026568100, 0.0000000000000000000, 5.250000000000008900 ) ) ;
#144 = DIRECTION ( 'NONE',  ( -0.0000000000000000000, -1.000000000000000000, -0.0000000000000000000 ) ) ;
#145 = DIRECTION ( 'NONE',  ( -0.0000000000000000000, -1.000000000000000000, -0.0000000000000000000 ) ) ;
#146 = DIRECTION ( 'NONE',  ( -0.3826834323650936700, -0.0000000000000000000, 0.9238795325112850700 ) ) ;
#147 = DIRECTION ( 'NONE',  ( 0.3826834323650940000, 0.0000000000000000000, -0.9238795325112849600 ) ) ;
#148 = DIRECTION ( 'NONE',  ( -0.0000000000000000000, -1.000000000000000000, -0.0000000000000000000 ) ) ;
#149 = LINE ( 'NONE', #143, #30 ) ;
#150 = EDGE_LOOP ( 'NONE', ( #257, #38, #252, #186 ) ) ;
#151 = CARTESIAN_POINT ( 'NONE',  ( 0.0000000000000000000, 0.0000000000000000000, 0.0000000000000000000 ) ) ;
#152 = FACE_OUTER_BOUND ( 'NONE', #113, .T. ) ;
#153 = CARTESIAN_POINT ( 'NONE',  ( -7.025712500026611600, 4.000000000000000000, -5.249999999999992000 ) ) ;
#154 = ORIENTED_EDGE ( 'NONE', *, *, #43, .T. ) ;
#155 = EDGE_CURVE ( 'NONE', #84, #51, #17, .T. ) ;
#156 = CARTESIAN_POINT ( 'NONE',  ( 7.025712500026568100, 4.000000000000000000, 5.250000000000008900 ) ) ;
#157 = CIRCLE ( 'NONE', #104, 2.500000000000000000 ) ;
#158 = FACE_OUTER_BOUND ( 'NONE', #150, .T. ) ;
#159 = EDGE_CURVE ( 'NONE', #51, #80, #55, .T. ) ;
#160 = FILL_AREA_STYLE ('',( #64 ) ) ;
#161 = MECHANICAL_DESIGN_GEOMETRIC_PRESENTATION_REPRESENTATION (  '', ( #123 ), #11 ) ;
#162 = EDGE_LOOP ( 'NONE', ( #179, #9 ) ) ;
#163 = DIRECTION ( 'NONE',  ( -0.0000000000000000000, -1.000000000000000000, -0.0000000000000000000 ) ) ;
#164 = DIRECTION ( 'NONE',  ( -0.0000000000000000000, -1.000000000000000000, -0.0000000000000000000 ) ) ;
#165 = CARTESIAN_POINT ( 'NONE',  ( -7.025712500026611600, 4.000000000000000000, -5.249999999999992000 ) ) ;
#166 =( GEOMETRIC_REPRESENTATION_CONTEXT ( 3 ) GLOBAL_UNCERTAINTY_ASSIGNED_CONTEXT ( ( #189 ) ) GLOBAL_UNIT_ASSIGNED_CONTEXT ( ( #255, #61, #35 ) ) REPRESENTATION_CONTEXT ( 'NONE', 'WORKASPACE' ) );
#167 = PRESENTATION_STYLE_ASSIGNMENT (( #98 ) ) ;
#168 = ORIENTED_EDGE ( 'NONE', *, *, #262, .F. ) ;
#169 = CARTESIAN_POINT ( 'NONE',  ( -7.025712500026611600, 4.000000000000000000, -5.249999999999992000 ) ) ;
#170 = FILL_AREA_STYLE_COLOUR ( '', #6 ) ;
#171 = LINE ( 'NONE', #273, #66 ) ;
#172 = VERTEX_POINT ( 'NONE', #41 ) ;
#173 = STYLED_ITEM ( 'NONE', ( #167 ), #101 ) ;
#174 = PRODUCT ( '1147016', '1147016', '', ( #100 ) ) ;
#175 = LINE ( 'NONE', #169, #220 ) ;
#176 = ORIENTED_EDGE ( 'NONE', *, *, #39, .F. ) ;
#177 = UNCERTAINTY_MEASURE_WITH_UNIT (LENGTH_MEASURE( 1.000000000000000100E-005 ), #128, 'distance_accuracy_value', 'NONE');
#178 = FACE_BOUND ( 'NONE', #215, .T. ) ;
#179 = ORIENTED_EDGE ( 'NONE', *, *, #250, .F. ) ;
#180 = EDGE_CURVE ( 'NONE', #172, #49, #120, .T. ) ;
#181 = DIRECTION ( 'NONE',  ( 0.0000000000000000000, -1.000000000000000000, 0.0000000000000000000 ) ) ;
#182 = APPLICATION_PROTOCOL_DEFINITION ( 'draft international standard', 'automotive_design', 1998, #270 ) ;
#183 = DIRECTION ( 'NONE',  ( 0.0000000000000000000, 0.0000000000000000000, -1.000000000000000000 ) ) ;
#184 = LINE ( 'NONE', #69, #271 ) ;
#185 = DIRECTION ( 'NONE',  ( 0.3826834323650936100, 0.0000000000000000000, -0.9238795325112850700 ) ) ;
#186 = ORIENTED_EDGE ( 'NONE', *, *, #95, .T. ) ;
#187 = PRODUCT_DEFINITION_SHAPE ( 'NONE', 'NONE',  #125 ) ;
#188 = ORIENTED_EDGE ( 'NONE', *, *, #124, .F. ) ;
#189 = UNCERTAINTY_MEASURE_WITH_UNIT (LENGTH_MEASURE( 1.000000000000000100E-005 ), #255, 'distance_accuracy_value', 'NONE');
#190 = VECTOR ( 'NONE', #14, 1000.000000000000200 ) ;
#191 =( LENGTH_UNIT ( ) NAMED_UNIT ( * ) SI_UNIT ( .MILLI., .METRE. ) );
#192 = AXIS2_PLACEMENT_3D ( 'NONE', #165, #260, #224 ) ;
#193 = COLOUR_RGB ( '',0.5294117647058823600, 0.5490196078431373000, 0.5490196078431373000 ) ;
#194 = DIRECTION ( 'NONE',  ( -0.0000000000000000000, -1.000000000000000000, -0.0000000000000000000 ) ) ;
#195 = DIRECTION ( 'NONE',  ( -0.0000000000000000000, -1.000000000000000000, -0.0000000000000000000 ) ) ;
#196 = ADVANCED_FACE ( 'NONE', ( #34 ), #133, .F. ) ;
#197 = ADVANCED_FACE ( 'NONE', ( #178, #158 ), #91, .F. ) ;
#198 = ADVANCED_FACE ( 'NONE', ( #152 ), #65, .F. ) ;
#199 = ADVANCED_FACE ( 'NONE', ( #71 ), #263, .F. ) ;
#200 = ADVANCED_FACE ( 'NONE', ( #50 ), #44, .F. ) ;
#201 = ADVANCED_FACE ( 'NONE', ( #248 ), #47, .F. ) ;
#202 = ADVANCED_FACE ( 'NONE', ( #73 ), #105, .F. ) ;
#203 = ADVANCED_FACE ( 'NONE', ( #106, #121 ), #216, .T. ) ;
#204 = DIRECTION ( 'NONE',  ( -0.0000000000000000000, -1.000000000000000000, -0.0000000000000000000 ) ) ;
#205 = LINE ( 'NONE', #15, #211 ) ;
#206 = CARTESIAN_POINT ( 'NONE',  ( 0.0000000000000000000, 4.000000000000000000, 0.0000000000000000000 ) ) ;
#207 = PRODUCT_RELATED_PRODUCT_CATEGORY ( 'part', '', ( #174 ) ) ;
#208 = CARTESIAN_POINT ( 'NONE',  ( -7.025712500026611600, 0.0000000000000000000, -5.249999999999992000 ) ) ;
#209 = EDGE_CURVE ( 'NONE', #237, #74, #83, .T. ) ;
#210 = DIRECTION ( 'NONE',  ( 0.0000000000000000000, 0.0000000000000000000, -1.000000000000000000 ) ) ;
#211 = VECTOR ( 'NONE', #163, 1000.000000000000000 ) ;
#212 = ORIENTED_EDGE ( 'NONE', *, *, #155, .F. ) ;
#213 = AXIS2_PLACEMENT_3D ( 'NONE', #131, #181, #21 ) ;
#214 = CARTESIAN_POINT ( 'NONE',  ( -11.37495490494416100, 0.0000000000000000000, 5.250000000000008000 ) ) ;
#215 = EDGE_LOOP ( 'NONE', ( #154, #110 ) ) ;
#216 = PLANE ( 'NONE',  #267 ) ;
#217 = DIRECTION ( 'NONE',  ( 4.713751511828835900E-017, 0.0000000000000000000, -1.000000000000000000 ) ) ;
#218 = DIRECTION ( 'NONE',  ( 0.0000000000000000000, 0.0000000000000000000, 1.000000000000000000 ) ) ;
#219 = DIRECTION ( 'NONE',  ( -1.000000000000000000, -0.0000000000000000000, 5.185126663011717600E-016 ) ) ;
#220 = VECTOR ( 'NONE', #111, 1000.000000000000000 ) ;
#221 = ORIENTED_EDGE ( 'NONE', *, *, #275, .F. ) ;
#222 = CARTESIAN_POINT ( 'NONE',  ( 7.025712500026568100, 4.000000000000000000, 5.250000000000008900 ) ) ;
#223 = ORIENTED_EDGE ( 'NONE', *, *, #93, .F. ) ;
#224 = DIRECTION ( 'NONE',  ( 1.000000000000000000, 0.0000000000000000000, -5.185126663011717600E-016 ) ) ;
#225 = CARTESIAN_POINT ( 'NONE',  ( 0.0000000000000000000, 1.040949779275250900E-016, 0.0000000000000000000 ) ) ;
#226 = CARTESIAN_POINT ( 'NONE',  ( 0.0000000000000000000, 1.040949779275250900E-016, -2.500000000000000000 ) ) ;
#227 = VECTOR ( 'NONE', #16, 1000.000000000000100 ) ;
#228 = VECTOR ( 'NONE', #230, 1000.000000000000000 ) ;
#229 = DIRECTION ( 'NONE',  ( 0.0000000000000000000, 0.0000000000000000000, -1.000000000000000000 ) ) ;
#230 = DIRECTION ( 'NONE',  ( -0.0000000000000000000, -1.000000000000000000, -0.0000000000000000000 ) ) ;
#231 = MECHANICAL_DESIGN_GEOMETRIC_PRESENTATION_REPRESENTATION (  '', ( #173 ), #118 ) ;
#232 = CARTESIAN_POINT ( 'NONE',  ( 3.061616997868383100E-016, 1.040949779275250900E-016, 2.500000000000000000 ) ) ;
#233 = VECTOR ( 'NONE', #144, 1000.000000000000000 ) ;
#234 = APPLICATION_PROTOCOL_DEFINITION ( 'draft international standard', 'automotive_design', 1998, #48 ) ;
#235 = CIRCLE ( 'NONE', #108, 2.499999999999999600 ) ;
#236 = ORIENTED_EDGE ( 'NONE', *, *, #89, .T. ) ;
#237 = VERTEX_POINT ( 'NONE', #53 ) ;
#238 = CARTESIAN_POINT ( 'NONE',  ( -11.37495490494416100, 4.000000000000000000, 5.250000000000008000 ) ) ;
#239 = AXIS2_PLACEMENT_3D ( 'NONE', #206, #164, #183 ) ;
#240 = ORIENTED_EDGE ( 'NONE', *, *, #124, .T. ) ;
#241 =( NAMED_UNIT ( * ) SI_UNIT ( $, .STERADIAN. ) SOLID_ANGLE_UNIT ( ) );
#242 = DIRECTION ( 'NONE',  ( 0.9238795325112851800, -0.0000000000000000000, 0.3826834323650936700 ) ) ;
#243 = CARTESIAN_POINT ( 'NONE',  ( -11.37495490494416100, 4.000000000000000000, 5.250000000000008000 ) ) ;
#244 = ORIENTED_EDGE ( 'NONE', *, *, #180, .T. ) ;
#245 = EDGE_CURVE ( 'NONE', #74, #51, #149, .T. ) ;
#246 =( NAMED_UNIT ( * ) SI_UNIT ( $, .STERADIAN. ) SOLID_ANGLE_UNIT ( ) );
#247 = CARTESIAN_POINT ( 'NONE',  ( 11.37495490494412600, 4.000000000000000000, -5.250000000000000900 ) ) ;
#248 = FACE_OUTER_BOUND ( 'NONE', #114, .T. ) ;
#249 = SURFACE_STYLE_USAGE ( .BOTH. , #40 ) ;
#250 = EDGE_CURVE ( 'NONE', #49, #8, #157, .T. ) ;
#251 = CARTESIAN_POINT ( 'NONE',  ( -7.025712500026611600, 0.0000000000000000000, -5.249999999999992000 ) ) ;
#252 = ORIENTED_EDGE ( 'NONE', *, *, #137, .T. ) ;
#253 = UNCERTAINTY_MEASURE_WITH_UNIT (LENGTH_MEASURE( 1.000000000000000100E-005 ), #191, 'distance_accuracy_value', 'NONE');
#254 = VECTOR ( 'NONE', #145, 1000.000000000000000 ) ;
#255 =( LENGTH_UNIT ( ) NAMED_UNIT ( * ) SI_UNIT ( .MILLI., .METRE. ) );
#256 = VECTOR ( 'NONE', #219, 1000.000000000000000 ) ;
#257 = ORIENTED_EDGE ( 'NONE', *, *, #39, .T. ) ;
#258 = AXIS2_PLACEMENT_3D ( 'NONE', #222, #57, #77 ) ;
#259 = CARTESIAN_POINT ( 'NONE',  ( 7.025712500026568100, 4.000000000000000000, 5.250000000000008900 ) ) ;
#260 = DIRECTION ( 'NONE',  ( 5.185126663011717600E-016, -0.0000000000000000000, 1.000000000000000000 ) ) ;
#261 = PRESENTATION_LAYER_ASSIGNMENT (  '', '', ( #173 ) ) ;
#262 = EDGE_CURVE ( 'NONE', #122, #27, #138, .T. ) ;
#263 = PLANE ( 'NONE',  #140 ) ;
#264 = SURFACE_STYLE_FILL_AREA ( #79 ) ;
#265 = ORIENTED_EDGE ( 'NONE', *, *, #86, .T. ) ;
#266 = CARTESIAN_POINT ( 'NONE',  ( 0.0000000000000000000, 1.040949779275250900E-016, 0.0000000000000000000 ) ) ;
#267 = AXIS2_PLACEMENT_3D ( 'NONE', #103, #102, #126 ) ;
#268 = SURFACE_SIDE_STYLE ('',( #68 ) ) ;
#269 = CARTESIAN_POINT ( 'NONE',  ( -11.37495490494416100, 4.000000000000000000, 5.250000000000008000 ) ) ;
#270 = APPLICATION_CONTEXT ( 'automotive_design' ) ;
#271 = VECTOR ( 'NONE', #20, 1000.000000000000000 ) ;
#272 = LINE ( 'NONE', #107, #256 ) ;
#273 = CARTESIAN_POINT ( 'NONE',  ( -11.37495490494416100, 4.000000000000000000, 5.250000000000008000 ) ) ;
#274 = CARTESIAN_POINT ( 'NONE',  ( -11.37495490494416100, 4.000000000000000000, 5.250000000000008000 ) ) ;
#275 = EDGE_CURVE ( 'NONE', #59, #172, #235, .T. ) ;
#276 = CARTESIAN_POINT ( 'NONE',  ( 0.0000000000000000000, 4.000000000000000000, 0.0000000000000000000 ) ) ;
ENDSEC;
END-ISO-10303-21;
