ISO-10303-21;
HEADER;
FILE_DESCRIPTION (( 'STEP AP214' ),
    '1' );
FILE_NAME ('1147020.STP',
    '2017-04-07T06:51:11',
    ( '' ),
    ( '' ),
    'SwSTEP 2.0',
    'SolidWorks 2016',
    '' );
FILE_SCHEMA (( 'AUTOMOTIVE_DESIGN' ));
ENDSEC;

DATA;
#1 = CARTESIAN_POINT ( 'NONE',  ( -9.781730192915421900, 4.999999999999990200, 0.0000000000000000000 ) ) ;
#2 = CARTESIAN_POINT ( 'NONE',  ( 0.0000000000000000000, 0.0000000000000000000, 2.500000000000000000 ) ) ;
#3 = ORIENTED_EDGE ( 'NONE', *, *, #169, .F. ) ;
#4 = DIRECTION ( 'NONE',  ( -0.0000000000000000000, -0.0000000000000000000, 1.000000000000000000 ) ) ;
#5 = DIRECTION ( 'NONE',  ( 1.000000000000000000, 0.0000000000000000000, 0.0000000000000000000 ) ) ;
#6 = FILL_AREA_STYLE ('',( #238 ) ) ;
#7 = SURFACE_SIDE_STYLE ('',( #256 ) ) ;
#8 = SURFACE_STYLE_USAGE ( .BOTH. , #7 ) ;
#9 = FACE_OUTER_BOUND ( 'NONE', #231, .T. ) ;
#10 = DIRECTION ( 'NONE',  ( 1.000000000000000000, 0.0000000000000000000, -0.0000000000000000000 ) ) ;
#11 =( NAMED_UNIT ( * ) PLANE_ANGLE_UNIT ( ) SI_UNIT ( $, .RADIAN. ) );
#12 =( NAMED_UNIT ( * ) SI_UNIT ( $, .STERADIAN. ) SOLID_ANGLE_UNIT ( ) );
#13 = AXIS2_PLACEMENT_3D ( 'NONE', #37, #35, #21 ) ;
#14 = CARTESIAN_POINT ( 'NONE',  ( 1.649999999999999500, 0.0000000000000000000, 2.500000000000000000 ) ) ;
#15 = DIRECTION ( 'NONE',  ( -0.0000000000000000000, -0.0000000000000000000, -1.000000000000000000 ) ) ;
#16 = DIRECTION ( 'NONE',  ( 1.000000000000000000, 3.660315281002997500E-016, 0.0000000000000000000 ) ) ;
#17 = AXIS2_PLACEMENT_3D ( 'NONE', #103, #48, #25 ) ;
#18 = DIRECTION ( 'NONE',  ( -0.0000000000000000000, -0.0000000000000000000, 1.000000000000000000 ) ) ;
#19 = CARTESIAN_POINT ( 'NONE',  ( 9.781730192915425400, -5.000000000000001800, 2.500000000000000000 ) ) ;
#20 = CARTESIAN_POINT ( 'NONE',  ( 9.781730192915425400, -5.000000000000001800, 0.0000000000000000000 ) ) ;
#21 = DIRECTION ( 'NONE',  ( 1.000000000000000000, 0.0000000000000000000, 0.0000000000000000000 ) ) ;
#22 = DIRECTION ( 'NONE',  ( -0.1736481776669234800, -0.9848077530122092400, -0.0000000000000000000 ) ) ;
#23 = PLANE ( 'NONE',  #114 ) ;
#24 = DIRECTION ( 'NONE',  ( 1.000000000000000000, 0.0000000000000000000, 0.0000000000000000000 ) ) ;
#25 = DIRECTION ( 'NONE',  ( 1.000000000000000000, 0.0000000000000000000, 0.0000000000000000000 ) ) ;
#26 = CARTESIAN_POINT ( 'NONE',  ( -11.54500000000000000, -5.000000000000009800, 2.500000000000000000 ) ) ;
#27 = ORIENTED_EDGE ( 'NONE', *, *, #115, .F. ) ;
#28 = DIRECTION ( 'NONE',  ( 0.9848077530122093500, -0.1736481776669234800, 0.0000000000000000000 ) ) ;
#29 = DIRECTION ( 'NONE',  ( 0.1736481776669234800, 0.9848077530122093500, 0.0000000000000000000 ) ) ;
#30 = CARTESIAN_POINT ( 'NONE',  ( 0.0000000000000000000, 0.0000000000000000000, 2.500000000000000000 ) ) ;
#31 = DIRECTION ( 'NONE',  ( -0.0000000000000000000, -0.0000000000000000000, 1.000000000000000000 ) ) ;
#32 = CARTESIAN_POINT ( 'NONE',  ( -11.54500000000000000, -5.000000000000009800, 2.500000000000000000 ) ) ;
#33 = DIRECTION ( 'NONE',  ( 1.000000000000000000, 3.660315281002996600E-016, 0.0000000000000000000 ) ) ;
#34 = PLANE ( 'NONE',  #55 ) ;
#35 = DIRECTION ( 'NONE',  ( -0.0000000000000000000, -0.0000000000000000000, 1.000000000000000000 ) ) ;
#36 = CARTESIAN_POINT ( 'NONE',  ( 9.781730192915425400, -5.000000000000001800, 2.500000000000000000 ) ) ;
#37 = CARTESIAN_POINT ( 'NONE',  ( 0.0000000000000000000, 0.0000000000000000000, 2.500000000000000000 ) ) ;
#38 = DIRECTION ( 'NONE',  ( -0.0000000000000000000, -0.0000000000000000000, 1.000000000000000000 ) ) ;
#39 = AXIS2_PLACEMENT_3D ( 'NONE', #70, #96, #97 ) ;
#40 = CARTESIAN_POINT ( 'NONE',  ( -1.649999999999999500, 2.020667218593132300E-016, 2.500000000000000000 ) ) ;
#41 = CARTESIAN_POINT ( 'NONE',  ( 1.649999999999999500, 0.0000000000000000000, 4.336808689942017700E-016 ) ) ;
#42 = CARTESIAN_POINT ( 'NONE',  ( 11.54500000000000000, 4.999999999999998200, 2.500000000000000000 ) ) ;
#43 = DIRECTION ( 'NONE',  ( -0.1736481776669231100, -0.9848077530122093500, 0.0000000000000000000 ) ) ;
#44 = CARTESIAN_POINT ( 'NONE',  ( -9.781730192915421900, 4.999999999999990200, 2.500000000000000000 ) ) ;
#45 = CARTESIAN_POINT ( 'NONE',  ( -1.649999999999999500, 2.020667218593132300E-016, 4.336808689942017700E-016 ) ) ;
#46 = AXIS2_PLACEMENT_3D ( 'NONE', #59, #60, #62 ) ;
#47 = CARTESIAN_POINT ( 'NONE',  ( 0.0000000000000000000, 0.0000000000000000000, 2.500000000000000000 ) ) ;
#48 = DIRECTION ( 'NONE',  ( -0.0000000000000000000, -0.0000000000000000000, 1.000000000000000000 ) ) ;
#49 = ORIENTED_EDGE ( 'NONE', *, *, #93, .F. ) ;
#50 = PLANE ( 'NONE',  #219 ) ;
#51 = PLANE ( 'NONE',  #189 ) ;
#52 = DIRECTION ( 'NONE',  ( -0.0000000000000000000, -0.0000000000000000000, -1.000000000000000000 ) ) ;
#53 = CARTESIAN_POINT ( 'NONE',  ( -11.54500000000000000, -5.000000000000009800, 2.500000000000000000 ) ) ;
#54 = EDGE_LOOP ( 'NONE', ( #152, #235 ) ) ;
#55 = AXIS2_PLACEMENT_3D ( 'NONE', #91, #163, #10 ) ;
#56 = CARTESIAN_POINT ( 'NONE',  ( -11.54500000000000000, -5.000000000000009800, 2.500000000000000000 ) ) ;
#57 = CARTESIAN_POINT ( 'NONE',  ( 9.781730192915425400, -5.000000000000001800, 2.500000000000000000 ) ) ;
#58 = CARTESIAN_POINT ( 'NONE',  ( -11.54500000000000000, -5.000000000000009800, 0.0000000000000000000 ) ) ;
#59 = CARTESIAN_POINT ( 'NONE',  ( 0.0000000000000000000, 0.0000000000000000000, 2.500000000000000000 ) ) ;
#60 = DIRECTION ( 'NONE',  ( -0.0000000000000000000, -0.0000000000000000000, 1.000000000000000000 ) ) ;
#61 = ORIENTED_EDGE ( 'NONE', *, *, #275, .F. ) ;
#62 = DIRECTION ( 'NONE',  ( 1.000000000000000000, 0.0000000000000000000, 0.0000000000000000000 ) ) ;
#63 = CARTESIAN_POINT ( 'NONE',  ( 9.781730192915425400, -5.000000000000001800, 0.0000000000000000000 ) ) ;
#64 =( GEOMETRIC_REPRESENTATION_CONTEXT ( 3 ) GLOBAL_UNCERTAINTY_ASSIGNED_CONTEXT ( ( #147 ) ) GLOBAL_UNIT_ASSIGNED_CONTEXT ( ( #85, #84, #86 ) ) REPRESENTATION_CONTEXT ( 'NONE', 'WORKASPACE' ) );
#65 = CARTESIAN_POINT ( 'NONE',  ( -11.54500000000000000, -5.000000000000009800, 2.500000000000000000 ) ) ;
#66 = VERTEX_POINT ( 'NONE', #183 ) ;
#67 = CARTESIAN_POINT ( 'NONE',  ( 0.0000000000000000000, 0.0000000000000000000, 4.336808689942017700E-016 ) ) ;
#68 = DIRECTION ( 'NONE',  ( -0.0000000000000000000, -0.0000000000000000000, 1.000000000000000000 ) ) ;
#69 = DIRECTION ( 'NONE',  ( 1.000000000000000000, 0.0000000000000000000, 0.0000000000000000000 ) ) ;
#70 = CARTESIAN_POINT ( 'NONE',  ( 0.0000000000000000000, 0.0000000000000000000, 0.0000000000000000000 ) ) ;
#71 = DIRECTION ( 'NONE',  ( -0.9848077530122093500, 0.1736481776669231100, 0.0000000000000000000 ) ) ;
#72 = DIRECTION ( 'NONE',  ( 1.000000000000000000, 3.660315281002996600E-016, 0.0000000000000000000 ) ) ;
#73 = CARTESIAN_POINT ( 'NONE',  ( -9.781730192915421900, 4.999999999999990200, 2.500000000000000000 ) ) ;
#74 = DIRECTION ( 'NONE',  ( -0.0000000000000000000, -0.0000000000000000000, -1.000000000000000000 ) ) ;
#75 =( GEOMETRIC_REPRESENTATION_CONTEXT ( 3 ) GLOBAL_UNCERTAINTY_ASSIGNED_CONTEXT ( ( #265 ) ) GLOBAL_UNIT_ASSIGNED_CONTEXT ( ( #211, #11, #12 ) ) REPRESENTATION_CONTEXT ( 'NONE', 'WORKASPACE' ) );
#76 = CARTESIAN_POINT ( 'NONE',  ( 11.54500000000000000, 4.999999999999998200, 0.0000000000000000000 ) ) ;
#77 = DIRECTION ( 'NONE',  ( 0.0000000000000000000, 0.0000000000000000000, 1.000000000000000000 ) ) ;
#78 = CARTESIAN_POINT ( 'NONE',  ( 9.781730192915425400, -5.000000000000001800, 2.500000000000000000 ) ) ;
#79 = CARTESIAN_POINT ( 'NONE',  ( 1.649999999999999500, 0.0000000000000000000, 2.500000000000000000 ) ) ;
#80 = LINE ( 'NONE', #78, #113 ) ;
#81 = DIRECTION ( 'NONE',  ( -1.000000000000000000, -3.660315281002997500E-016, -0.0000000000000000000 ) ) ;
#82 = PLANE ( 'NONE',  #108 ) ;
#83 = EDGE_CURVE ( 'NONE', #212, #274, #262, .T. ) ;
#84 =( NAMED_UNIT ( * ) PLANE_ANGLE_UNIT ( ) SI_UNIT ( $, .RADIAN. ) );
#85 =( LENGTH_UNIT ( ) NAMED_UNIT ( * ) SI_UNIT ( .MILLI., .METRE. ) );
#86 =( NAMED_UNIT ( * ) SI_UNIT ( $, .STERADIAN. ) SOLID_ANGLE_UNIT ( ) );
#87 = SHAPE_DEFINITION_REPRESENTATION ( #241, #251 ) ;
#88 = PRESENTATION_LAYER_ASSIGNMENT (  '', '', ( #203 ) ) ;
#89 = APPLICATION_PROTOCOL_DEFINITION ( 'draft international standard', 'automotive_design', 1998, #90 ) ;
#90 = APPLICATION_CONTEXT ( 'automotive_design' ) ;
#91 = CARTESIAN_POINT ( 'NONE',  ( 0.0000000000000000000, 0.0000000000000000000, 0.0000000000000000000 ) ) ;
#92 =( NAMED_UNIT ( * ) PLANE_ANGLE_UNIT ( ) SI_UNIT ( $, .RADIAN. ) );
#93 = EDGE_CURVE ( 'NONE', #218, #95, #273, .T. ) ;
#94 =( NAMED_UNIT ( * ) SI_UNIT ( $, .STERADIAN. ) SOLID_ANGLE_UNIT ( ) );
#95 = VERTEX_POINT ( 'NONE', #45 ) ;
#96 = DIRECTION ( 'NONE',  ( 0.0000000000000000000, 0.0000000000000000000, 1.000000000000000000 ) ) ;
#97 = DIRECTION ( 'NONE',  ( 1.000000000000000000, 0.0000000000000000000, 0.0000000000000000000 ) ) ;
#98 = PRODUCT_CONTEXT ( 'NONE', #90, 'mechanical' ) ;
#99 = APPLICATION_CONTEXT ( 'automotive_design' ) ;
#100 = DIRECTION ( 'NONE',  ( -0.0000000000000000000, -0.0000000000000000000, -1.000000000000000000 ) ) ;
#101 = DIRECTION ( 'NONE',  ( 1.000000000000000000, 0.0000000000000000000, -0.0000000000000000000 ) ) ;
#102 = APPLICATION_PROTOCOL_DEFINITION ( 'draft international standard', 'automotive_design', 1998, #99 ) ;
#103 = CARTESIAN_POINT ( 'NONE',  ( 0.0000000000000000000, 0.0000000000000000000, 4.336808689942017700E-016 ) ) ;
#104 = PLANE ( 'NONE',  #207 ) ;
#105 = DIRECTION ( 'NONE',  ( 0.1736481776669231100, 0.9848077530122093500, 0.0000000000000000000 ) ) ;
#106 = EDGE_CURVE ( 'NONE', #111, #230, #225, .T. ) ;
#107 = PRESENTATION_STYLE_ASSIGNMENT (( #126 ) ) ;
#108 = AXIS2_PLACEMENT_3D ( 'NONE', #36, #71, #43 ) ;
#109 = CARTESIAN_POINT ( 'NONE',  ( -9.781730192915421900, 4.999999999999990200, 2.500000000000000000 ) ) ;
#110 = EDGE_CURVE ( 'NONE', #259, #274, #216, .T. ) ;
#111 = VERTEX_POINT ( 'NONE', #200 ) ;
#112 = DIRECTION ( 'NONE',  ( -3.660315281002996600E-016, 1.000000000000000000, 0.0000000000000000000 ) ) ;
#113 = VECTOR ( 'NONE', #105, 1000.000000000000000 ) ;
#114 = AXIS2_PLACEMENT_3D ( 'NONE', #26, #28, #29 ) ;
#115 = EDGE_CURVE ( 'NONE', #242, #212, #80, .T. ) ;
#116 = ORIENTED_EDGE ( 'NONE', *, *, #127, .T. ) ;
#117 =( LENGTH_UNIT ( ) NAMED_UNIT ( * ) SI_UNIT ( .MILLI., .METRE. ) );
#118 = CARTESIAN_POINT ( 'NONE',  ( -11.54500000000000000, -5.000000000000009800, 2.500000000000000000 ) ) ;
#119 = UNCERTAINTY_MEASURE_WITH_UNIT (LENGTH_MEASURE( 1.000000000000000100E-005 ), #117, 'distance_accuracy_value', 'NONE');
#120 = ORIENTED_EDGE ( 'NONE', *, *, #106, .T. ) ;
#121 = DIRECTION ( 'NONE',  ( 0.1736481776669231100, 0.9848077530122093500, 0.0000000000000000000 ) ) ;
#122 = ORIENTED_EDGE ( 'NONE', *, *, #268, .T. ) ;
#123 = VERTEX_POINT ( 'NONE', #239 ) ;
#124 = VERTEX_POINT ( 'NONE', #79 ) ;
#125 = EDGE_CURVE ( 'NONE', #129, #66, #162, .T. ) ;
#126 = SURFACE_STYLE_USAGE ( .BOTH. , #128 ) ;
#127 = EDGE_CURVE ( 'NONE', #123, #124, #182, .T. ) ;
#128 = SURFACE_SIDE_STYLE ('',( #136 ) ) ;
#129 = VERTEX_POINT ( 'NONE', #258 ) ;
#130 = MANIFOLD_SOLID_BREP ( ' Gewindebohrung1', #260 ) ;
#131 = VECTOR ( 'NONE', #121, 1000.000000000000000 ) ;
#132 = ORIENTED_EDGE ( 'NONE', *, *, #133, .F. ) ;
#133 = EDGE_CURVE ( 'NONE', #218, #124, #276, .T. ) ;
#134 = FILL_AREA_STYLE ('',( #135 ) ) ;
#135 = FILL_AREA_STYLE_COLOUR ( '', #143 ) ;
#136 = SURFACE_STYLE_FILL_AREA ( #134 ) ;
#137 = PRESENTATION_LAYER_ASSIGNMENT (  '', '', ( #206 ) ) ;
#138 = ORIENTED_EDGE ( 'NONE', *, *, #244, .T. ) ;
#139 = VECTOR ( 'NONE', #81, 1000.000000000000000 ) ;
#140 = LINE ( 'NONE', #73, #139 ) ;
#141 = MECHANICAL_DESIGN_GEOMETRIC_PRESENTATION_REPRESENTATION (  '', ( #206 ), #75 ) ;
#142 = EDGE_CURVE ( 'NONE', #274, #129, #199, .T. ) ;
#143 = COLOUR_RGB ( '',0.7529411764705882200, 0.7529411764705882200, 0.7529411764705882200 ) ;
#144 = VECTOR ( 'NONE', #72, 1000.000000000000000 ) ;
#145 = LINE ( 'NONE', #58, #144 ) ;
#146 = LINE ( 'NONE', #65, #154 ) ;
#147 = UNCERTAINTY_MEASURE_WITH_UNIT (LENGTH_MEASURE( 1.000000000000000100E-005 ), #85, 'distance_accuracy_value', 'NONE');
#148 = PRODUCT_DEFINITION ( 'UNKNOWN', '', #257, #204 ) ;
#149 = ORIENTED_EDGE ( 'NONE', *, *, #142, .F. ) ;
#150 = CIRCLE ( 'NONE', #184, 1.649999999999999500 ) ;
#151 = PRODUCT ( '1147020', '1147020', '', ( #98 ) ) ;
#152 = ORIENTED_EDGE ( 'NONE', *, *, #228, .F. ) ;
#153 = VECTOR ( 'NONE', #38, 1000.000000000000000 ) ;
#154 = VECTOR ( 'NONE', #74, 1000.000000000000000 ) ;
#155 = CYLINDRICAL_SURFACE ( 'NONE', #13, 1.649999999999999500 ) ;
#156 = CARTESIAN_POINT ( 'NONE',  ( 11.54500000000000000, 4.999999999999998200, 2.500000000000000000 ) ) ;
#157 = CIRCLE ( 'NONE', #46, 1.649999999999999500 ) ;
#158 = MECHANICAL_DESIGN_GEOMETRIC_PRESENTATION_REPRESENTATION (  '', ( #203 ), #246 ) ;
#159 = DIRECTION ( 'NONE',  ( -1.000000000000000000, -3.660315281002996600E-016, 0.0000000000000000000 ) ) ;
#160 = EDGE_CURVE ( 'NONE', #242, #259, #192, .T. ) ;
#161 = LINE ( 'NONE', #44, #186 ) ;
#162 = LINE ( 'NONE', #271, #232 ) ;
#163 = DIRECTION ( 'NONE',  ( 0.0000000000000000000, 0.0000000000000000000, 1.000000000000000000 ) ) ;
#164 = FACE_OUTER_BOUND ( 'NONE', #269, .T. ) ;
#165 = DIRECTION ( 'NONE',  ( 3.660315281002997500E-016, -1.000000000000000000, 0.0000000000000000000 ) ) ;
#166 = FACE_OUTER_BOUND ( 'NONE', #247, .T. ) ;
#167 = FACE_OUTER_BOUND ( 'NONE', #270, .T. ) ;
#168 = ADVANCED_FACE ( 'NONE', ( #185 ), #23, .F. ) ;
#169 = EDGE_CURVE ( 'NONE', #230, #242, #178, .T. ) ;
#170 = ADVANCED_FACE ( 'NONE', ( #180 ), #224, .F. ) ;
#171 = ADVANCED_FACE ( 'NONE', ( #190 ), #82, .F. ) ;
#172 = ADVANCED_FACE ( 'NONE', ( #177, #166 ), #51, .T. ) ;
#173 = ADVANCED_FACE ( 'NONE', ( #167 ), #50, .F. ) ;
#174 = ADVANCED_FACE ( 'NONE', ( #236 ), #104, .F. ) ;
#175 = ADVANCED_FACE ( 'NONE', ( #210, #164 ), #34, .F. ) ;
#176 = ADVANCED_FACE ( 'NONE', ( #9 ), #155, .F. ) ;
#177 = FACE_BOUND ( 'NONE', #54, .T. ) ;
#178 = LINE ( 'NONE', #32, #181 ) ;
#179 = EDGE_CURVE ( 'NONE', #111, #129, #161, .T. ) ;
#180 = FACE_OUTER_BOUND ( 'NONE', #196, .T. ) ;
#181 = VECTOR ( 'NONE', #33, 1000.000000000000000 ) ;
#182 = CIRCLE ( 'NONE', #240, 1.649999999999999500 ) ;
#183 = CARTESIAN_POINT ( 'NONE',  ( -11.54500000000000000, -5.000000000000009800, 0.0000000000000000000 ) ) ;
#184 = AXIS2_PLACEMENT_3D ( 'NONE', #67, #68, #69 ) ;
#185 = FACE_OUTER_BOUND ( 'NONE', #233, .T. ) ;
#186 = VECTOR ( 'NONE', #52, 1000.000000000000000 ) ;
#187 = LINE ( 'NONE', #40, #153 ) ;
#188 = AXIS2_PLACEMENT_3D ( 'NONE', #30, #31, #24 ) ;
#189 = AXIS2_PLACEMENT_3D ( 'NONE', #47, #77, #101 ) ;
#190 = FACE_OUTER_BOUND ( 'NONE', #221, .T. ) ;
#191 = VECTOR ( 'NONE', #249, 1000.000000000000000 ) ;
#192 = LINE ( 'NONE', #19, #267 ) ;
#193 = ORIENTED_EDGE ( 'NONE', *, *, #179, .T. ) ;
#194 = VECTOR ( 'NONE', #18, 1000.000000000000000 ) ;
#195 = EDGE_CURVE ( 'NONE', #95, #123, #187, .T. ) ;
#196 = EDGE_LOOP ( 'NONE', ( #209, #49, #202, #266 ) ) ;
#197 = ORIENTED_EDGE ( 'NONE', *, *, #195, .T. ) ;
#198 = VECTOR ( 'NONE', #22, 1000.000000000000100 ) ;
#199 = LINE ( 'NONE', #1, #191 ) ;
#200 = CARTESIAN_POINT ( 'NONE',  ( -9.781730192915421900, 4.999999999999990200, 2.500000000000000000 ) ) ;
#201 = ORIENTED_EDGE ( 'NONE', *, *, #179, .F. ) ;
#202 = ORIENTED_EDGE ( 'NONE', *, *, #133, .T. ) ;
#203 = STYLED_ITEM ( 'NONE', ( #107 ), #251 ) ;
#204 = PRODUCT_DEFINITION_CONTEXT ( 'detailed design', #99, 'design' ) ;
#205 = PRESENTATION_STYLE_ASSIGNMENT (( #8 ) ) ;
#206 = STYLED_ITEM ( 'NONE', ( #205 ), #130 ) ;
#207 = AXIS2_PLACEMENT_3D ( 'NONE', #109, #165, #16 ) ;
#208 = ORIENTED_EDGE ( 'NONE', *, *, #142, .T. ) ;
#209 = ORIENTED_EDGE ( 'NONE', *, *, #195, .F. ) ;
#210 = FACE_BOUND ( 'NONE', #220, .T. ) ;
#211 =( LENGTH_UNIT ( ) NAMED_UNIT ( * ) SI_UNIT ( .MILLI., .METRE. ) );
#212 = VERTEX_POINT ( 'NONE', #42 ) ;
#213 = ORIENTED_EDGE ( 'NONE', *, *, #234, .T. ) ;
#214 = ORIENTED_EDGE ( 'NONE', *, *, #93, .T. ) ;
#215 = ORIENTED_EDGE ( 'NONE', *, *, #110, .T. ) ;
#216 = LINE ( 'NONE', #20, #131 ) ;
#217 = ORIENTED_EDGE ( 'NONE', *, *, #83, .T. ) ;
#218 = VERTEX_POINT ( 'NONE', #41 ) ;
#219 = AXIS2_PLACEMENT_3D ( 'NONE', #53, #112, #159 ) ;
#220 = EDGE_LOOP ( 'NONE', ( #214, #213 ) ) ;
#221 = EDGE_LOOP ( 'NONE', ( #215, #263, #27, #229 ) ) ;
#222 = VECTOR ( 'NONE', #100, 1000.000000000000000 ) ;
#223 = ORIENTED_EDGE ( 'NONE', *, *, #275, .T. ) ;
#224 = CYLINDRICAL_SURFACE ( 'NONE', #188, 1.649999999999999500 ) ;
#225 = LINE ( 'NONE', #118, #198 ) ;
#226 = ORIENTED_EDGE ( 'NONE', *, *, #160, .F. ) ;
#227 = ORIENTED_EDGE ( 'NONE', *, *, #268, .F. ) ;
#228 = EDGE_CURVE ( 'NONE', #124, #123, #157, .T. ) ;
#229 = ORIENTED_EDGE ( 'NONE', *, *, #160, .T. ) ;
#230 = VERTEX_POINT ( 'NONE', #56 ) ;
#231 = EDGE_LOOP ( 'NONE', ( #272, #197, #116, #132 ) ) ;
#232 = VECTOR ( 'NONE', #253, 1000.000000000000100 ) ;
#233 = EDGE_LOOP ( 'NONE', ( #264, #227, #245, #193 ) ) ;
#234 = EDGE_CURVE ( 'NONE', #95, #218, #150, .T. ) ;
#235 = ORIENTED_EDGE ( 'NONE', *, *, #127, .F. ) ;
#236 = FACE_OUTER_BOUND ( 'NONE', #248, .T. ) ;
#237 = ORIENTED_EDGE ( 'NONE', *, *, #110, .F. ) ;
#238 = FILL_AREA_STYLE_COLOUR ( '', #261 ) ;
#239 = CARTESIAN_POINT ( 'NONE',  ( -1.649999999999999500, 2.020667218593132300E-016, 2.500000000000000000 ) ) ;
#240 = AXIS2_PLACEMENT_3D ( 'NONE', #2, #4, #5 ) ;
#241 = PRODUCT_DEFINITION_SHAPE ( 'NONE', 'NONE',  #148 ) ;
#242 = VERTEX_POINT ( 'NONE', #57 ) ;
#243 = ORIENTED_EDGE ( 'NONE', *, *, #125, .F. ) ;
#244 = EDGE_CURVE ( 'NONE', #66, #259, #145, .T. ) ;
#245 = ORIENTED_EDGE ( 'NONE', *, *, #106, .F. ) ;
#246 =( GEOMETRIC_REPRESENTATION_CONTEXT ( 3 ) GLOBAL_UNCERTAINTY_ASSIGNED_CONTEXT ( ( #119 ) ) GLOBAL_UNIT_ASSIGNED_CONTEXT ( ( #117, #92, #94 ) ) REPRESENTATION_CONTEXT ( 'NONE', 'WORKASPACE' ) );
#247 = EDGE_LOOP ( 'NONE', ( #250, #254, #223, #120 ) ) ;
#248 = EDGE_LOOP ( 'NONE', ( #208, #201, #61, #217 ) ) ;
#249 = DIRECTION ( 'NONE',  ( -1.000000000000000000, -3.660315281002997500E-016, -0.0000000000000000000 ) ) ;
#250 = ORIENTED_EDGE ( 'NONE', *, *, #169, .T. ) ;
#251 = ADVANCED_BREP_SHAPE_REPRESENTATION ( '1147020', ( #130, #39 ), #64 ) ;
#252 = PRODUCT_RELATED_PRODUCT_CATEGORY ( 'part', '', ( #151 ) ) ;
#253 = DIRECTION ( 'NONE',  ( -0.1736481776669234800, -0.9848077530122092400, -0.0000000000000000000 ) ) ;
#254 = ORIENTED_EDGE ( 'NONE', *, *, #115, .T. ) ;
#255 = ORIENTED_EDGE ( 'NONE', *, *, #244, .F. ) ;
#256 = SURFACE_STYLE_FILL_AREA ( #6 ) ;
#257 = PRODUCT_DEFINITION_FORMATION_WITH_SPECIFIED_SOURCE ( 'ANY', '', #151, .NOT_KNOWN. ) ;
#258 = CARTESIAN_POINT ( 'NONE',  ( -9.781730192915421900, 4.999999999999990200, 0.0000000000000000000 ) ) ;
#259 = VERTEX_POINT ( 'NONE', #63 ) ;
#260 = CLOSED_SHELL ( 'NONE', ( #176, #173, #171, #174, #168, #172, #175, #170 ) ) ;
#261 = COLOUR_RGB ( '',0.7529411764705882200, 0.7529411764705882200, 0.7529411764705882200 ) ;
#262 = LINE ( 'NONE', #156, #222 ) ;
#263 = ORIENTED_EDGE ( 'NONE', *, *, #83, .F. ) ;
#264 = ORIENTED_EDGE ( 'NONE', *, *, #125, .T. ) ;
#265 = UNCERTAINTY_MEASURE_WITH_UNIT (LENGTH_MEASURE( 1.000000000000000100E-005 ), #211, 'distance_accuracy_value', 'NONE');
#266 = ORIENTED_EDGE ( 'NONE', *, *, #228, .T. ) ;
#267 = VECTOR ( 'NONE', #15, 1000.000000000000000 ) ;
#268 = EDGE_CURVE ( 'NONE', #230, #66, #146, .T. ) ;
#269 = EDGE_LOOP ( 'NONE', ( #255, #243, #149, #237 ) ) ;
#270 = EDGE_LOOP ( 'NONE', ( #138, #226, #3, #122 ) ) ;
#271 = CARTESIAN_POINT ( 'NONE',  ( -11.54500000000000000, -5.000000000000009800, 0.0000000000000000000 ) ) ;
#272 = ORIENTED_EDGE ( 'NONE', *, *, #234, .F. ) ;
#273 = CIRCLE ( 'NONE', #17, 1.649999999999999500 ) ;
#274 = VERTEX_POINT ( 'NONE', #76 ) ;
#275 = EDGE_CURVE ( 'NONE', #212, #111, #140, .T. ) ;
#276 = LINE ( 'NONE', #14, #194 ) ;
ENDSEC;
END-ISO-10303-21;
