ISO-10303-21;
HEADER;
FILE_DESCRIPTION (( 'STEP AP214' ),
    '1' );
FILE_NAME ('1147138.stp',
    '2022-02-10T10:43:35',
    ( '' ),
    ( '' ),
    'SwSTEP 2.0',
    'SolidWorks 2020',
    '' );
FILE_SCHEMA (( 'AUTOMOTIVE_DESIGN' ));
ENDSEC;

DATA;
#1 = CARTESIAN_POINT ( 'NONE',  ( -8.000000000000000000, 2.168404344971008868E-16, -8.500000000000000000 ) ) ;
#2 = VERTEX_POINT ( 'NONE', #82 ) ;
#3 = LINE ( 'NONE', #206, #60 ) ;
#4 = VERTEX_POINT ( 'NONE', #367 ) ;
#5 = PLANE ( 'NONE',  #189 ) ;
#6 = PRESENTATION_STYLE_ASSIGNMENT (( #97 ) ) ;
#7 = PLANE ( 'NONE',  #363 ) ;
#8 = ORIENTED_EDGE ( 'NONE', *, *, #226, .F. ) ;
#9 = CARTESIAN_POINT ( 'NONE',  ( 8.000000000000000000, 3.000000000000000000, 8.500000000000000000 ) ) ;
#10 = AXIS2_PLACEMENT_3D ( 'NONE', #131, #222, #364 ) ;
#11 = MECHANICAL_DESIGN_GEOMETRIC_PRESENTATION_REPRESENTATION (  '', ( #20 ), #319 ) ;
#12 = ORIENTED_EDGE ( 'NONE', *, *, #36, .T. ) ;
#13 = ADVANCED_FACE ( 'NONE', ( #116 ), #23, .F. ) ;
#14 = DIRECTION ( 'NONE',  ( -0.9535826651341416937, -0.3011313679370973273, 0.000000000000000000 ) ) ;
#15 = EDGE_CURVE ( 'NONE', #152, #123, #276, .T. ) ;
#16 = DIRECTION ( 'NONE',  ( 0.000000000000000000, 0.000000000000000000, 1.000000000000000000 ) ) ;
#17 = DIRECTION ( 'NONE',  ( 0.1733876835661140869, 0.05475400533666761188, 0.9833304175541246472 ) ) ;
#18 = CARTESIAN_POINT ( 'NONE',  ( 17.50000000000000000, 10.00000000000000178, 8.500000000000000000 ) ) ;
#19 = AXIS2_PLACEMENT_3D ( 'NONE', #210, #320, #115 ) ;
#20 = STYLED_ITEM ( 'NONE', ( #6 ), #238 ) ;
#21 = CARTESIAN_POINT ( 'NONE',  ( 17.50000000000000000, 2.168404344971008868E-16, 8.500000000000000000 ) ) ;
#22 = ORIENTED_EDGE ( 'NONE', *, *, #306, .F. ) ;
#23 = PLANE ( 'NONE',  #331 ) ;
#24 = ORIENTED_EDGE ( 'NONE', *, *, #361, .T. ) ;
#25 = DIRECTION ( 'NONE',  ( -0.1736481776669314692, -0.000000000000000000, -0.9848077530122079093 ) ) ;
#26 = ORIENTED_EDGE ( 'NONE', *, *, #274, .T. ) ;
#27 =( NAMED_UNIT ( * ) SI_UNIT ( $, .STERADIAN. ) SOLID_ANGLE_UNIT ( ) );
#28 = PRESENTATION_STYLE_ASSIGNMENT (( #279 ) ) ;
#29 = ORIENTED_EDGE ( 'NONE', *, *, #80, .F. ) ;
#30 = FACE_OUTER_BOUND ( 'NONE', #355, .T. ) ;
#31 = ORIENTED_EDGE ( 'NONE', *, *, #262, .F. ) ;
#32 = CARTESIAN_POINT ( 'NONE',  ( -17.50000000000000000, 2.168404344971008868E-16, 8.500000000000000000 ) ) ;
#33 = PRODUCT_DEFINITION_CONTEXT ( 'detailed design', #223, 'design' ) ;
#34 = ORIENTED_EDGE ( 'NONE', *, *, #91, .F. ) ;
#35 =( LENGTH_UNIT ( ) NAMED_UNIT ( * ) SI_UNIT ( .MILLI., .METRE. ) );
#36 = EDGE_CURVE ( 'NONE', #368, #2, #173, .T. ) ;
#37 =( NAMED_UNIT ( * ) PLANE_ANGLE_UNIT ( ) SI_UNIT ( $, .RADIAN. ) );
#38 = PRODUCT ( '1147138', '1147138', '', ( #158 ) ) ;
#39 = LINE ( 'NONE', #236, #350 ) ;
#40 = LINE ( 'NONE', #73, #127 ) ;
#41 = EDGE_CURVE ( 'NONE', #123, #240, #366, .T. ) ;
#42 = VECTOR ( 'NONE', #362, 1000.000000000000000 ) ;
#43 = VECTOR ( 'NONE', #121, 1000.000000000000000 ) ;
#44 = CARTESIAN_POINT ( 'NONE',  ( 8.000000000000000000, 2.168404344971008868E-16, -8.500000000000000000 ) ) ;
#45 = LINE ( 'NONE', #44, #310 ) ;
#46 = CARTESIAN_POINT ( 'NONE',  ( 8.000000000000000000, 2.168404344971008868E-16, 8.500000000000000000 ) ) ;
#47 = ADVANCED_FACE ( 'NONE', ( #200 ), #7, .F. ) ;
#48 = CARTESIAN_POINT ( 'NONE',  ( 17.50000949367015224, -2.998001100545419866E-06, 8.500053841278930378 ) ) ;
#49 = UNCERTAINTY_MEASURE_WITH_UNIT (LENGTH_MEASURE( 1.000000000000000082E-05 ), #35, 'distance_accuracy_value', 'NONE');
#50 = ORIENTED_EDGE ( 'NONE', *, *, #195, .F. ) ;
#51 = ADVANCED_FACE ( 'NONE', ( #30 ), #250, .T. ) ;
#52 = ORIENTED_EDGE ( 'NONE', *, *, #271, .F. ) ;
#53 = LINE ( 'NONE', #202, #117 ) ;
#54 = EDGE_LOOP ( 'NONE', ( #147 ) ) ;
#55 = FILL_AREA_STYLE_COLOUR ( '', #349 ) ;
#56 = EDGE_LOOP ( 'NONE', ( #237 ) ) ;
#57 = SHAPE_DEFINITION_REPRESENTATION ( #245, #238 ) ;
#58 = FILL_AREA_STYLE ('',( #55 ) ) ;
#59 = EDGE_LOOP ( 'NONE', ( #343, #172, #69, #212 ) ) ;
#60 = VECTOR ( 'NONE', #122, 1000.000000000000000 ) ;
#61 = LINE ( 'NONE', #65, #229 ) ;
#62 = APPLICATION_PROTOCOL_DEFINITION ( 'draft international standard', 'automotive_design', 1998, #302 ) ;
#63 = CARTESIAN_POINT ( 'NONE',  ( -17.50000000000000000, -0.001000000000002734812, -8.500000000000000000 ) ) ;
#64 = ORIENTED_EDGE ( 'NONE', *, *, #232, .F. ) ;
#65 = CARTESIAN_POINT ( 'NONE',  ( 8.000000000000000000, 3.000000000000000000, 8.500000000000000000 ) ) ;
#66 = CARTESIAN_POINT ( 'NONE',  ( -17.50000949367015224, -2.998001100200042181E-06, -8.500053841278930378 ) ) ;
#67 = ORIENTED_EDGE ( 'NONE', *, *, #80, .T. ) ;
#68 = APPLICATION_PROTOCOL_DEFINITION ( 'draft international standard', 'automotive_design', 1998, #223 ) ;
#69 = ORIENTED_EDGE ( 'NONE', *, *, #168, .F. ) ;
#70 = FILL_AREA_STYLE ('',( #134 ) ) ;
#71 = FACE_OUTER_BOUND ( 'NONE', #56, .T. ) ;
#72 = EDGE_CURVE ( 'NONE', #2, #256, #227, .T. ) ;
#73 = CARTESIAN_POINT ( 'NONE',  ( 17.50000000000000000, 10.00000000000000000, -8.500000000000000000 ) ) ;
#74 = VECTOR ( 'NONE', #239, 999.9999999999998863 ) ;
#75 = CARTESIAN_POINT ( 'NONE',  ( -17.50000000000000000, 2.168404344971008868E-16, 8.500000000000000000 ) ) ;
#76 = ORIENTED_EDGE ( 'NONE', *, *, #271, .T. ) ;
#77 = DIRECTION ( 'NONE',  ( 1.000000000000000000, 0.000000000000000000, 0.000000000000000000 ) ) ;
#78 = VECTOR ( 'NONE', #339, 999.9999999999998863 ) ;
#79 = VECTOR ( 'NONE', #25, 1000.000000000000114 ) ;
#80 = EDGE_CURVE ( 'NONE', #348, #123, #3, .T. ) ;
#81 = UNCERTAINTY_MEASURE_WITH_UNIT (LENGTH_MEASURE( 1.000000000000000082E-05 ), #146, 'distance_accuracy_value', 'NONE');
#82 = CARTESIAN_POINT ( 'NONE',  ( 17.50000000000000000, 2.168404344971008868E-16, 8.500000000000000000 ) ) ;
#83 = DIRECTION ( 'NONE',  ( 0.000000000000000000, 1.000000000000000000, 0.000000000000000000 ) ) ;
#84 = EDGE_LOOP ( 'NONE', ( #233, #337, #50, #292, #344, #324, #144, #317 ) ) ;
#85 = AXIS2_PLACEMENT_3D ( 'NONE', #167, #356, #157 ) ;
#86 = DIRECTION ( 'NONE',  ( 0.000000000000000000, -0.000000000000000000, -1.000000000000000000 ) ) ;
#87 = VERTEX_POINT ( 'NONE', #340 ) ;
#88 = LINE ( 'NONE', #278, #79 ) ;
#89 = SURFACE_SIDE_STYLE ('',( #294 ) ) ;
#90 = CARTESIAN_POINT ( 'NONE',  ( 8.000000000000000000, 3.000000000000000000, 8.500000000000000000 ) ) ;
#91 = EDGE_CURVE ( 'NONE', #4, #152, #53, .T. ) ;
#92 = ORIENTED_EDGE ( 'NONE', *, *, #274, .F. ) ;
#93 = DIRECTION ( 'NONE',  ( -0.000000000000000000, 0.000000000000000000, -1.000000000000000000 ) ) ;
#94 = EDGE_LOOP ( 'NONE', ( #207, #217, #231, #261 ) ) ;
#95 = PRESENTATION_LAYER_ASSIGNMENT (  '', '', ( #298 ) ) ;
#96 = CARTESIAN_POINT ( 'NONE',  ( -14.50244132795607754, 0.9465974753822919974, 8.500000000000000000 ) ) ;
#97 = SURFACE_STYLE_USAGE ( .BOTH. , #89 ) ;
#98 = DIRECTION ( 'NONE',  ( -9.912705577010325549E-17, 1.000000000000000000, -0.000000000000000000 ) ) ;
#99 = ORIENTED_EDGE ( 'NONE', *, *, #114, .F. ) ;
#100 = VERTEX_POINT ( 'NONE', #289 ) ;
#101 =( NAMED_UNIT ( * ) PLANE_ANGLE_UNIT ( ) SI_UNIT ( $, .RADIAN. ) );
#102 = ORIENTED_EDGE ( 'NONE', *, *, #111, .T. ) ;
#103 = DIRECTION ( 'NONE',  ( -0.9848077530122079093, -9.762109305567119065E-17, 0.1736481776669313026 ) ) ;
#104 = AXIS2_PLACEMENT_3D ( 'NONE', #75, #264, #14 ) ;
#105 = PLANE ( 'NONE',  #295 ) ;
#106 = UNCERTAINTY_MEASURE_WITH_UNIT (LENGTH_MEASURE( 1.000000000000000082E-05 ), #209, 'distance_accuracy_value', 'NONE');
#107 = FACE_OUTER_BOUND ( 'NONE', #258, .T. ) ;
#108 = CARTESIAN_POINT ( 'NONE',  ( -14.50244132795607754, 9.999999999999998224, 8.500000000000000000 ) ) ;
#109 = CARTESIAN_POINT ( 'NONE',  ( -8.000000000000000000, 2.168404344971008868E-16, 8.500000000000000000 ) ) ;
#110 = MANIFOLD_SOLID_BREP ( 'Bohrung', #177 ) ;
#111 = EDGE_CURVE ( 'NONE', #228, #152, #219, .T. ) ;
#112 = DIRECTION ( 'NONE',  ( 0.000000000000000000, -1.000000000000000000, 0.000000000000000000 ) ) ;
#113 = VECTOR ( 'NONE', #83, 1000.000000000000000 ) ;
#114 = EDGE_CURVE ( 'NONE', #353, #129, #313, .T. ) ;
#115 = DIRECTION ( 'NONE',  ( 1.000000000000000000, 0.000000000000000000, 0.000000000000000000 ) ) ;
#116 = FACE_OUTER_BOUND ( 'NONE', #84, .T. ) ;
#117 = VECTOR ( 'NONE', #316, 1000.000000000000000 ) ;
#118 = ORIENTED_EDGE ( 'NONE', *, *, #91, .T. ) ;
#119 = DIRECTION ( 'NONE',  ( -0.9535826651341416937, 0.3011313679370973273, 0.000000000000000000 ) ) ;
#120 = EDGE_LOOP ( 'NONE', ( #204, #29, #31, #118 ) ) ;
#121 = DIRECTION ( 'NONE',  ( 0.000000000000000000, -1.000000000000000000, 0.000000000000000000 ) ) ;
#122 = DIRECTION ( 'NONE',  ( -0.000000000000000000, -0.000000000000000000, -1.000000000000000000 ) ) ;
#123 = VERTEX_POINT ( 'NONE', #192 ) ;
#124 = FACE_OUTER_BOUND ( 'NONE', #341, .T. ) ;
#125 = DIRECTION ( 'NONE',  ( -0.000000000000000000, -0.000000000000000000, -1.000000000000000000 ) ) ;
#126 = EDGE_LOOP ( 'NONE', ( #26, #170, #180, #194 ) ) ;
#127 = VECTOR ( 'NONE', #266, 1000.000000000000000 ) ;
#128 = FACE_OUTER_BOUND ( 'NONE', #126, .T. ) ;
#129 = VERTEX_POINT ( 'NONE', #108 ) ;
#130 = CARTESIAN_POINT ( 'NONE',  ( 17.50000000000000000, -0.0009999999999992653654, 8.500000000000000000 ) ) ;
#131 = CARTESIAN_POINT ( 'NONE',  ( 0.000000000000000000, 10.00000000000000000, 5.944591164848680122E-16 ) ) ;
#132 = COLOUR_RGB ( '',0.7529411764705882248, 0.7529411764705882248, 0.7529411764705882248 ) ;
#133 = CARTESIAN_POINT ( 'NONE',  ( -17.50000000000000000, 10.00000000000000000, -8.500000000000000000 ) ) ;
#134 = FILL_AREA_STYLE_COLOUR ( '', #132 ) ;
#135 = CARTESIAN_POINT ( 'NONE',  ( 8.000000000000000000, 2.168404344971008868E-16, -8.500000000000000000 ) ) ;
#136 = LINE ( 'NONE', #109, #351 ) ;
#137 = PRODUCT_RELATED_PRODUCT_CATEGORY ( 'part', '', ( #38 ) ) ;
#138 = PLANE ( 'NONE',  #169 ) ;
#139 = DIRECTION ( 'NONE',  ( -0.1733876835661139204, 0.05475400533666755637, -0.9833304175541246472 ) ) ;
#140 = VECTOR ( 'NONE', #242, 999.9999999999998863 ) ;
#141 = VECTOR ( 'NONE', #125, 1000.000000000000000 ) ;
#142 = SURFACE_STYLE_FILL_AREA ( #58 ) ;
#143 = DIRECTION ( 'NONE',  ( -0.1736481776669314692, 0.000000000000000000, -0.9848077530122079093 ) ) ;
#144 = ORIENTED_EDGE ( 'NONE', *, *, #111, .F. ) ;
#145 = LINE ( 'NONE', #32, #74 ) ;
#146 =( LENGTH_UNIT ( ) NAMED_UNIT ( * ) SI_UNIT ( .MILLI., .METRE. ) );
#147 = ORIENTED_EDGE ( 'NONE', *, *, #226, .T. ) ;
#148 = VECTOR ( 'NONE', #281, 1000.000000000000114 ) ;
#149 = FACE_OUTER_BOUND ( 'NONE', #120, .T. ) ;
#150 = ADVANCED_FACE ( 'NONE', ( #71, #182 ), #164, .F. ) ;
#151 = DIRECTION ( 'NONE',  ( 1.000000000000000000, 0.000000000000000000, 0.000000000000000000 ) ) ;
#152 = VERTEX_POINT ( 'NONE', #360 ) ;
#153 = PLANE ( 'NONE',  #336 ) ;
#154 =( NAMED_UNIT ( * ) SI_UNIT ( $, .STERADIAN. ) SOLID_ANGLE_UNIT ( ) );
#155 = SURFACE_SIDE_STYLE ('',( #142 ) ) ;
#156 = VERTEX_POINT ( 'NONE', #133 ) ;
#157 = DIRECTION ( 'NONE',  ( 0.000000000000000000, 0.000000000000000000, -1.000000000000000000 ) ) ;
#158 = PRODUCT_CONTEXT ( 'NONE', #302, 'mechanical' ) ;
#159 = VERTEX_POINT ( 'NONE', #46 ) ;
#160 = AXIS2_PLACEMENT_3D ( 'NONE', #213, #346, #93 ) ;
#161 = PLANE ( 'NONE',  #365 ) ;
#162 = PLANE ( 'NONE',  #104 ) ;
#163 = LINE ( 'NONE', #358, #187 ) ;
#164 = CYLINDRICAL_SURFACE ( 'NONE', #309, 5.500000000000000000 ) ;
#165 = DIRECTION ( 'NONE',  ( 0.000000000000000000, 1.000000000000000000, 0.000000000000000000 ) ) ;
#166 = CARTESIAN_POINT ( 'NONE',  ( 8.000000000000000000, 2.168404344971008868E-16, 8.500000000000000000 ) ) ;
#167 = CARTESIAN_POINT ( 'NONE',  ( 0.000000000000000000, 0.000000000000000000, 5.944591164848680122E-16 ) ) ;
#168 = EDGE_CURVE ( 'NONE', #159, #368, #186, .T. ) ;
#169 = AXIS2_PLACEMENT_3D ( 'NONE', #305, #112, #86 ) ;
#170 = ORIENTED_EDGE ( 'NONE', *, *, #191, .T. ) ;
#171 = ORIENTED_EDGE ( 'NONE', *, *, #262, .T. ) ;
#172 = ORIENTED_EDGE ( 'NONE', *, *, #361, .F. ) ;
#173 = LINE ( 'NONE', #90, #78 ) ;
#174 = ORIENTED_EDGE ( 'NONE', *, *, #72, .T. ) ;
#175 = ADVANCED_FACE ( 'NONE', ( #267 ), #105, .F. ) ;
#176 = CARTESIAN_POINT ( 'NONE',  ( 17.50000000000000000, 10.00000000000000178, 8.500000000000000000 ) ) ;
#177 = CLOSED_SHELL ( 'NONE', ( #359, #307, #175, #328, #273, #203, #51, #13, #47, #296, #150 ) ) ;
#178 = VERTEX_POINT ( 'NONE', #270 ) ;
#179 = LINE ( 'NONE', #263, #43 ) ;
#180 = ORIENTED_EDGE ( 'NONE', *, *, #334, .T. ) ;
#181 = CARTESIAN_POINT ( 'NONE',  ( 8.000000000000000000, 3.000000000000000000, 8.500000000000000000 ) ) ;
#182 = FACE_OUTER_BOUND ( 'NONE', #345, .T. ) ;
#183 = ORIENTED_EDGE ( 'NONE', *, *, #195, .T. ) ;
#184 =( GEOMETRIC_REPRESENTATION_CONTEXT ( 3 ) GLOBAL_UNCERTAINTY_ASSIGNED_CONTEXT ( ( #106 ) ) GLOBAL_UNIT_ASSIGNED_CONTEXT ( ( #209, #101, #154 ) ) REPRESENTATION_CONTEXT ( 'NONE', 'WORKASPACE' ) );
#185 = EDGE_CURVE ( 'NONE', #159, #240, #352, .T. ) ;
#186 = LINE ( 'NONE', #166, #193 ) ;
#187 = VECTOR ( 'NONE', #329, 1000.000000000000000 ) ;
#188 = DIRECTION ( 'NONE',  ( 0.000000000000000000, -1.000000000000000000, 0.000000000000000000 ) ) ;
#189 = AXIS2_PLACEMENT_3D ( 'NONE', #130, #103, #208 ) ;
#190 = DIRECTION ( 'NONE',  ( 0.000000000000000000, 0.000000000000000000, -1.000000000000000000 ) ) ;
#191 = EDGE_CURVE ( 'NONE', #234, #87, #39, .T. ) ;
#192 = CARTESIAN_POINT ( 'NONE',  ( -8.000000000000000000, 2.168404344971008868E-16, -8.500000000000000000 ) ) ;
#193 = VECTOR ( 'NONE', #290, 1000.000000000000000 ) ;
#194 = ORIENTED_EDGE ( 'NONE', *, *, #72, .F. ) ;
#195 = EDGE_CURVE ( 'NONE', #178, #234, #220, .T. ) ;
#196 =( NAMED_UNIT ( * ) SI_UNIT ( $, .STERADIAN. ) SOLID_ANGLE_UNIT ( ) );
#197 = EDGE_LOOP ( 'NONE', ( #275 ) ) ;
#198 = EDGE_CURVE ( 'NONE', #228, #353, #330, .T. ) ;
#199 = PRODUCT_DEFINITION_FORMATION_WITH_SPECIFIED_SOURCE ( 'ANY', '', #38, .NOT_KNOWN. ) ;
#200 = FACE_OUTER_BOUND ( 'NONE', #94, .T. ) ;
#201 = ORIENTED_EDGE ( 'NONE', *, *, #198, .F. ) ;
#202 = CARTESIAN_POINT ( 'NONE',  ( -8.000000000000000000, 3.000000000000000000, 8.500000000000000000 ) ) ;
#203 = ADVANCED_FACE ( 'NONE', ( #107 ), #162, .F. ) ;
#204 = ORIENTED_EDGE ( 'NONE', *, *, #15, .T. ) ;
#205 = LINE ( 'NONE', #176, #148 ) ;
#206 = CARTESIAN_POINT ( 'NONE',  ( -8.000000000000000000, 2.168404344971008868E-16, 8.500000000000000000 ) ) ;
#207 = ORIENTED_EDGE ( 'NONE', *, *, #198, .T. ) ;
#208 = DIRECTION ( 'NONE',  ( 0.1736481776669313026, 0.000000000000000000, 0.9848077530122079093 ) ) ;
#209 =( LENGTH_UNIT ( ) NAMED_UNIT ( * ) SI_UNIT ( .MILLI., .METRE. ) );
#210 = CARTESIAN_POINT ( 'NONE',  ( 0.000000000000000000, 0.000000000000000000, 8.500000000000000000 ) ) ;
#211 = MECHANICAL_DESIGN_GEOMETRIC_PRESENTATION_REPRESENTATION (  '', ( #298 ), #357 ) ;
#212 = ORIENTED_EDGE ( 'NONE', *, *, #185, .T. ) ;
#213 = CARTESIAN_POINT ( 'NONE',  ( -8.000000000000000000, 3.000000000000000000, 8.500000000000000000 ) ) ;
#214 = CARTESIAN_POINT ( 'NONE',  ( 8.000000000000000000, 2.168404344971008868E-16, 8.500000000000000000 ) ) ;
#215 = ORIENTED_EDGE ( 'NONE', *, *, #291, .F. ) ;
#216 = VERTEX_POINT ( 'NONE', #325 ) ;
#217 = ORIENTED_EDGE ( 'NONE', *, *, #114, .T. ) ;
#218 = VECTOR ( 'NONE', #311, 1000.000000000000000 ) ;
#219 = LINE ( 'NONE', #335, #248 ) ;
#220 = LINE ( 'NONE', #323, #140 ) ;
#221 = VECTOR ( 'NONE', #188, 1000.000000000000000 ) ;
#222 = DIRECTION ( 'NONE',  ( 0.000000000000000000, -1.000000000000000000, 0.000000000000000000 ) ) ;
#223 = APPLICATION_CONTEXT ( 'automotive_design' ) ;
#224 = CARTESIAN_POINT ( 'NONE',  ( 8.000000000000000000, 2.168404344971008868E-16, 8.500000000000000000 ) ) ;
#225 = LINE ( 'NONE', #48, #304 ) ;
#226 = EDGE_CURVE ( 'NONE', #100, #100, #303, .T. ) ;
#227 = LINE ( 'NONE', #21, #113 ) ;
#228 = VERTEX_POINT ( 'NONE', #300 ) ;
#229 = VECTOR ( 'NONE', #286, 1000.000000000000000 ) ;
#230 = DIRECTION ( 'NONE',  ( -0.000000000000000000, 0.000000000000000000, 1.000000000000000000 ) ) ;
#231 = ORIENTED_EDGE ( 'NONE', *, *, #291, .T. ) ;
#232 = EDGE_CURVE ( 'NONE', #256, #129, #163, .T. ) ;
#233 = ORIENTED_EDGE ( 'NONE', *, *, #243, .F. ) ;
#234 = VERTEX_POINT ( 'NONE', #297 ) ;
#235 = DIRECTION ( 'NONE',  ( 0.3011313679370973273, 0.9535826651341416937, -0.000000000000000000 ) ) ;
#236 = CARTESIAN_POINT ( 'NONE',  ( 14.50244132795608287, -0.0009999999999992653654, -8.500000000000000000 ) ) ;
#237 = ORIENTED_EDGE ( 'NONE', *, *, #282, .T. ) ;
#238 = ADVANCED_BREP_SHAPE_REPRESENTATION ( '1147138', ( #110, #269 ), #184 ) ;
#239 = DIRECTION ( 'NONE',  ( 0.9535826651341416937, 0.3011313679370973273, 0.000000000000000000 ) ) ;
#240 = VERTEX_POINT ( 'NONE', #135 ) ;
#241 = CARTESIAN_POINT ( 'NONE',  ( -8.000000000000000000, 2.168404344971008868E-16, 8.500000000000000000 ) ) ;
#242 = DIRECTION ( 'NONE',  ( 0.9535826651341416937, -0.3011313679370973273, 0.000000000000000000 ) ) ;
#243 = EDGE_CURVE ( 'NONE', #87, #156, #40, .T. ) ;
#244 = LINE ( 'NONE', #333, #221 ) ;
#245 = PRODUCT_DEFINITION_SHAPE ( 'NONE', 'NONE',  #249 ) ;
#246 = DIRECTION ( 'NONE',  ( 0.9535826651341416937, 0.3011313679370973273, 0.000000000000000000 ) ) ;
#247 = CARTESIAN_POINT ( 'NONE',  ( -14.50244132795607577, -0.001000000000002734812, 8.500000000000000000 ) ) ;
#248 = VECTOR ( 'NONE', #246, 999.9999999999998863 ) ;
#249 = PRODUCT_DEFINITION ( 'UNKNOWN', '', #199, #33 ) ;
#250 = PLANE ( 'NONE',  #19 ) ;
#251 = ORIENTED_EDGE ( 'NONE', *, *, #168, .T. ) ;
#252 = FACE_BOUND ( 'NONE', #197, .T. ) ;
#253 = VECTOR ( 'NONE', #17, 1000.000000000000227 ) ;
#254 = PRESENTATION_LAYER_ASSIGNMENT (  '', '', ( #20 ) ) ;
#255 = CARTESIAN_POINT ( 'NONE',  ( 0.000000000000000000, 0.000000000000000000, -8.500000000000000000 ) ) ;
#256 = VERTEX_POINT ( 'NONE', #18 ) ;
#257 =( NAMED_UNIT ( * ) PLANE_ANGLE_UNIT ( ) SI_UNIT ( $, .RADIAN. ) );
#258 = EDGE_LOOP ( 'NONE', ( #22, #201, #102, #34 ) ) ;
#259 = ORIENTED_EDGE ( 'NONE', *, *, #36, .F. ) ;
#260 = DIRECTION ( 'NONE',  ( 0.000000000000000000, 1.000000000000000000, 0.000000000000000000 ) ) ;
#261 = ORIENTED_EDGE ( 'NONE', *, *, #326, .T. ) ;
#262 = EDGE_CURVE ( 'NONE', #4, #348, #244, .T. ) ;
#263 = CARTESIAN_POINT ( 'NONE',  ( -17.50000000000000000, 10.00000000000000000, -8.500000000000000000 ) ) ;
#264 = DIRECTION ( 'NONE',  ( -0.3011313679370973273, 0.9535826651341416937, 0.000000000000000000 ) ) ;
#265 = EDGE_CURVE ( 'NONE', #240, #178, #45, .T. ) ;
#266 = DIRECTION ( 'NONE',  ( -1.000000000000000000, 0.000000000000000000, 0.000000000000000000 ) ) ;
#267 = FACE_OUTER_BOUND ( 'NONE', #59, .T. ) ;
#268 = DIRECTION ( 'NONE',  ( -0.000000000000000000, -1.000000000000000000, -0.000000000000000000 ) ) ;
#269 = AXIS2_PLACEMENT_3D ( 'NONE', #315, #347, #151 ) ;
#270 = CARTESIAN_POINT ( 'NONE',  ( 8.000000000000000000, 3.000000000000000000, -8.500000000000000000 ) ) ;
#271 = EDGE_CURVE ( 'NONE', #348, #159, #136, .T. ) ;
#272 = FACE_BOUND ( 'NONE', #54, .T. ) ;
#273 = ADVANCED_FACE ( 'NONE', ( #272, #338 ), #138, .F. ) ;
#274 = EDGE_CURVE ( 'NONE', #2, #234, #225, .T. ) ;
#275 = ORIENTED_EDGE ( 'NONE', *, *, #282, .F. ) ;
#276 = LINE ( 'NONE', #308, #218 ) ;
#277 = ORIENTED_EDGE ( 'NONE', *, *, #232, .T. ) ;
#278 = CARTESIAN_POINT ( 'NONE',  ( -17.50000000000000000, 9.999999999999998224, -8.500000000000000000 ) ) ;
#279 = SURFACE_STYLE_USAGE ( .BOTH. , #155 ) ;
#280 = ORIENTED_EDGE ( 'NONE', *, *, #41, .T. ) ;
#281 = DIRECTION ( 'NONE',  ( 0.1736481776669312749, -0.000000000000000000, 0.9848077530122079093 ) ) ;
#282 = EDGE_CURVE ( 'NONE', #216, #216, #332, .T. ) ;
#283 = VECTOR ( 'NONE', #342, 1000.000000000000000 ) ;
#284 = DIRECTION ( 'NONE',  ( 1.000000000000000000, 0.000000000000000000, 0.000000000000000000 ) ) ;
#285 = ORIENTED_EDGE ( 'NONE', *, *, #306, .T. ) ;
#286 = DIRECTION ( 'NONE',  ( -0.000000000000000000, -0.000000000000000000, -1.000000000000000000 ) ) ;
#287 = DIRECTION ( 'NONE',  ( 0.9848077530122079093, 9.762109305567119065E-17, -0.1736481776669314692 ) ) ;
#288 = EDGE_LOOP ( 'NONE', ( #280, #327, #52, #67 ) ) ;
#289 = CARTESIAN_POINT ( 'NONE',  ( 0.000000000000000000, 10.00000000000000000, -5.499999999999999112 ) ) ;
#290 = DIRECTION ( 'NONE',  ( 0.000000000000000000, 1.000000000000000000, 0.000000000000000000 ) ) ;
#291 = EDGE_CURVE ( 'NONE', #129, #156, #88, .T. ) ;
#292 = ORIENTED_EDGE ( 'NONE', *, *, #265, .F. ) ;
#293 = FACE_OUTER_BOUND ( 'NONE', #288, .T. ) ;
#294 = SURFACE_STYLE_FILL_AREA ( #70 ) ;
#295 = AXIS2_PLACEMENT_3D ( 'NONE', #214, #299, #16 ) ;
#296 = ADVANCED_FACE ( 'NONE', ( #128 ), #5, .F. ) ;
#297 = CARTESIAN_POINT ( 'NONE',  ( 14.50244132795608465, 0.9465974753822894439, -8.500000000000000000 ) ) ;
#298 = STYLED_ITEM ( 'NONE', ( #28 ), #110 ) ;
#299 = DIRECTION ( 'NONE',  ( -1.000000000000000000, 0.000000000000000000, 0.000000000000000000 ) ) ;
#300 = CARTESIAN_POINT ( 'NONE',  ( -17.50000000000000000, 2.168404344971008868E-16, -8.500000000000000000 ) ) ;
#301 = CARTESIAN_POINT ( 'NONE',  ( 0.000000000000000000, 17.00000000000000000, 5.944591164848680122E-16 ) ) ;
#302 = APPLICATION_CONTEXT ( 'automotive_design' ) ;
#303 = CIRCLE ( 'NONE', #10, 5.500000000000000000 ) ;
#304 = VECTOR ( 'NONE', #139, 1000.000000000000114 ) ;
#305 = CARTESIAN_POINT ( 'NONE',  ( 17.50000000000000000, 10.00000000000000000, 8.500000000000000000 ) ) ;
#306 = EDGE_CURVE ( 'NONE', #353, #4, #145, .T. ) ;
#307 = ADVANCED_FACE ( 'NONE', ( #252, #293 ), #161, .F. ) ;
#308 = CARTESIAN_POINT ( 'NONE',  ( -8.000000000000000000, 3.000000000000000000, -8.500000000000000000 ) ) ;
#309 = AXIS2_PLACEMENT_3D ( 'NONE', #301, #268, #190 ) ;
#310 = VECTOR ( 'NONE', #165, 1000.000000000000000 ) ;
#311 = DIRECTION ( 'NONE',  ( 0.000000000000000000, -1.000000000000000000, 0.000000000000000000 ) ) ;
#312 = ORIENTED_EDGE ( 'NONE', *, *, #243, .T. ) ;
#313 = LINE ( 'NONE', #247, #42 ) ;
#314 = ORIENTED_EDGE ( 'NONE', *, *, #334, .F. ) ;
#315 = CARTESIAN_POINT ( 'NONE',  ( 0.000000000000000000, 0.000000000000000000, 0.000000000000000000 ) ) ;
#316 = DIRECTION ( 'NONE',  ( -0.000000000000000000, -0.000000000000000000, -1.000000000000000000 ) ) ;
#317 = ORIENTED_EDGE ( 'NONE', *, *, #326, .F. ) ;
#318 = DIRECTION ( 'NONE',  ( 0.000000000000000000, -0.000000000000000000, 1.000000000000000000 ) ) ;
#319 =( GEOMETRIC_REPRESENTATION_CONTEXT ( 3 ) GLOBAL_UNCERTAINTY_ASSIGNED_CONTEXT ( ( #49 ) ) GLOBAL_UNIT_ASSIGNED_CONTEXT ( ( #35, #37, #27 ) ) REPRESENTATION_CONTEXT ( 'NONE', 'WORKASPACE' ) );
#320 = DIRECTION ( 'NONE',  ( -0.000000000000000000, 0.000000000000000000, 1.000000000000000000 ) ) ;
#321 = EDGE_LOOP ( 'NONE', ( #64, #314, #312, #215 ) ) ;
#322 = PLANE ( 'NONE',  #160 ) ;
#323 = CARTESIAN_POINT ( 'NONE',  ( 8.000000000000000000, 3.000000000000000000, -8.500000000000000000 ) ) ;
#324 = ORIENTED_EDGE ( 'NONE', *, *, #15, .F. ) ;
#325 = CARTESIAN_POINT ( 'NONE',  ( 0.000000000000000000, 0.000000000000000000, -5.499999999999999112 ) ) ;
#326 = EDGE_CURVE ( 'NONE', #156, #228, #179, .T. ) ;
#327 = ORIENTED_EDGE ( 'NONE', *, *, #185, .F. ) ;
#328 = ADVANCED_FACE ( 'NONE', ( #124 ), #153, .F. ) ;
#329 = DIRECTION ( 'NONE',  ( -1.000000000000000000, 0.000000000000000000, 0.000000000000000000 ) ) ;
#330 = LINE ( 'NONE', #66, #253 ) ;
#331 = AXIS2_PLACEMENT_3D ( 'NONE', #255, #230, #284 ) ;
#332 = CIRCLE ( 'NONE', #85, 5.500000000000000000 ) ;
#333 = CARTESIAN_POINT ( 'NONE',  ( -8.000000000000000000, 3.000000000000000000, 8.500000000000000000 ) ) ;
#334 = EDGE_CURVE ( 'NONE', #87, #256, #205, .T. ) ;
#335 = CARTESIAN_POINT ( 'NONE',  ( -17.50000000000000000, 2.168404344971008868E-16, -8.500000000000000000 ) ) ;
#336 = AXIS2_PLACEMENT_3D ( 'NONE', #9, #235, #119 ) ;
#337 = ORIENTED_EDGE ( 'NONE', *, *, #191, .F. ) ;
#338 = FACE_OUTER_BOUND ( 'NONE', #321, .T. ) ;
#339 = DIRECTION ( 'NONE',  ( 0.9535826651341416937, -0.3011313679370973273, 0.000000000000000000 ) ) ;
#340 = CARTESIAN_POINT ( 'NONE',  ( 14.50244132795608110, 10.00000000000000178, -8.500000000000000000 ) ) ;
#341 = EDGE_LOOP ( 'NONE', ( #183, #92, #259, #24 ) ) ;
#342 = DIRECTION ( 'NONE',  ( 1.000000000000000000, 0.000000000000000000, 0.000000000000000000 ) ) ;
#343 = ORIENTED_EDGE ( 'NONE', *, *, #265, .T. ) ;
#344 = ORIENTED_EDGE ( 'NONE', *, *, #41, .F. ) ;
#345 = EDGE_LOOP ( 'NONE', ( #8 ) ) ;
#346 = DIRECTION ( 'NONE',  ( 1.000000000000000000, 0.000000000000000000, -0.000000000000000000 ) ) ;
#347 = DIRECTION ( 'NONE',  ( 0.000000000000000000, 0.000000000000000000, 1.000000000000000000 ) ) ;
#348 = VERTEX_POINT ( 'NONE', #354 ) ;
#349 = COLOUR_RGB ( '',0.7529411764705882248, 0.7529411764705882248, 0.7529411764705882248 ) ;
#350 = VECTOR ( 'NONE', #98, 1000.000000000000000 ) ;
#351 = VECTOR ( 'NONE', #77, 1000.000000000000000 ) ;
#352 = LINE ( 'NONE', #224, #141 ) ;
#353 = VERTEX_POINT ( 'NONE', #96 ) ;
#354 = CARTESIAN_POINT ( 'NONE',  ( -8.000000000000000000, 2.168404344971008868E-16, 8.500000000000000000 ) ) ;
#355 = EDGE_LOOP ( 'NONE', ( #99, #285, #171, #76, #251, #12, #174, #277 ) ) ;
#356 = DIRECTION ( 'NONE',  ( 0.000000000000000000, -1.000000000000000000, 0.000000000000000000 ) ) ;
#357 =( GEOMETRIC_REPRESENTATION_CONTEXT ( 3 ) GLOBAL_UNCERTAINTY_ASSIGNED_CONTEXT ( ( #81 ) ) GLOBAL_UNIT_ASSIGNED_CONTEXT ( ( #146, #257, #196 ) ) REPRESENTATION_CONTEXT ( 'NONE', 'WORKASPACE' ) );
#358 = CARTESIAN_POINT ( 'NONE',  ( 17.50000000000000000, 10.00000000000000000, 8.500000000000000000 ) ) ;
#359 = ADVANCED_FACE ( 'NONE', ( #149 ), #322, .F. ) ;
#360 = CARTESIAN_POINT ( 'NONE',  ( -8.000000000000000000, 3.000000000000000000, -8.500000000000000000 ) ) ;
#361 = EDGE_CURVE ( 'NONE', #368, #178, #61, .T. ) ;
#362 = DIRECTION ( 'NONE',  ( -9.912705577010325549E-17, 1.000000000000000000, -0.000000000000000000 ) ) ;
#363 = AXIS2_PLACEMENT_3D ( 'NONE', #63, #287, #143 ) ;
#364 = DIRECTION ( 'NONE',  ( 0.000000000000000000, 0.000000000000000000, -1.000000000000000000 ) ) ;
#365 = AXIS2_PLACEMENT_3D ( 'NONE', #241, #260, #318 ) ;
#366 = LINE ( 'NONE', #1, #283 ) ;
#367 = CARTESIAN_POINT ( 'NONE',  ( -8.000000000000000000, 3.000000000000000000, 8.500000000000000000 ) ) ;
#368 = VERTEX_POINT ( 'NONE', #181 ) ;
ENDSEC;
END-ISO-10303-21;
