ISO-10303-21;
HEADER;
FILE_DESCRIPTION (( 'STEP AP214' ),
    '1' );
FILE_NAME ('2029511_KSTP1.stp',
    '2018-09-10T11:53:00',
    ( '' ),
    ( '' ),
    'SwSTEP 2.0',
    'SolidWorks 2016',
    '' );
FILE_SCHEMA (( 'AUTOMOTIVE_DESIGN' ));
ENDSEC;

DATA;
#1 = ADVANCED_FACE ( 'NONE', ( #125 ), #104, .F. ) ;
#2 =( NAMED_UNIT ( * ) SI_UNIT ( $, .STERADIAN. ) SOLID_ANGLE_UNIT ( ) );
#3 =( GEOMETRIC_REPRESENTATION_CONTEXT ( 3 ) GLOBAL_UNCERTAINTY_ASSIGNED_CONTEXT ( ( #381 ) ) GLOBAL_UNIT_ASSIGNED_CONTEXT ( ( #173, #386, #207 ) ) REPRESENTATION_CONTEXT ( 'NONE', 'WORKASPACE' ) );
#4 = CARTESIAN_POINT ( 'NONE',  ( -2.750000000000001800, 2.000000000000000000, 0.0000000000000000000 ) ) ;
#5 = EDGE_LOOP ( 'NONE', ( #132, #370 ) ) ;
#6 = DIRECTION ( 'NONE',  ( -1.000000000000000000, 0.0000000000000000000, 0.0000000000000000000 ) ) ;
#7 = ORIENTED_EDGE ( 'NONE', *, *, #191, .F. ) ;
#8 = DIRECTION ( 'NONE',  ( -1.000000000000000000, -1.212970340425830000E-017, 0.0000000000000000000 ) ) ;
#9 = DIRECTION ( 'NONE',  ( -1.212970340425829900E-017, 1.000000000000000000, 0.0000000000000000000 ) ) ;
#10 = EDGE_LOOP ( 'NONE', ( #361, #208, #338, #177 ) ) ;
#11 = DIRECTION ( 'NONE',  ( -1.000000000000000000, -1.212970340425830000E-017, 0.0000000000000000000 ) ) ;
#12 = CARTESIAN_POINT ( 'NONE',  ( 3.898362565878096100E-015, -12.74999999999994700, 0.0000000000000000000 ) ) ;
#13 = CARTESIAN_POINT ( 'NONE',  ( 1.084202172485504400E-016, 0.0000000000000000000, 0.0000000000000000000 ) ) ;
#14 = DIRECTION ( 'NONE',  ( 1.224646799147353200E-016, 1.485460244863167800E-033, -1.000000000000000000 ) ) ;
#15 = CIRCLE ( 'NONE', #138, 1.650000000000001200 ) ;
#16 = APPLICATION_CONTEXT ( 'automotive_design' ) ;
#17 = CIRCLE ( 'NONE', #333, 1.650000000000001200 ) ;
#18 = EDGE_CURVE ( 'NONE', #160, #88, #105, .T. ) ;
#19 =( NAMED_UNIT ( * ) PLANE_ANGLE_UNIT ( ) SI_UNIT ( $, .RADIAN. ) );
#20 = CIRCLE ( 'NONE', #146, 24.44999999999994600 ) ;
#21 = AXIS2_PLACEMENT_3D ( 'NONE', #176, #298, #392 ) ;
#22 = LINE ( 'NONE', #380, #317 ) ;
#23 = EDGE_LOOP ( 'NONE', ( #319, #172, #151 ) ) ;
#24 = DIRECTION ( 'NONE',  ( -1.212970340425829900E-017, 1.000000000000000000, -0.0000000000000000000 ) ) ;
#25 = CARTESIAN_POINT ( 'NONE',  ( 2.750000000000001800, 2.000000000000000000, 3.367778697655223000E-016 ) ) ;
#26 = VERTEX_POINT ( 'NONE', #130 ) ;
#27 = CARTESIAN_POINT ( 'NONE',  ( 2.100000000000001900, 2.547237714894245200E-017, 2.969768487932333500E-016 ) ) ;
#28 = ADVANCED_FACE ( 'NONE', ( #354 ), #182, .F. ) ;
#29 = DIRECTION ( 'NONE',  ( -1.000000000000000000, 0.0000000000000000000, 0.0000000000000000000 ) ) ;
#30 = ADVANCED_FACE ( 'NONE', ( #204 ), #239, .T. ) ;
#31 = CIRCLE ( 'NONE', #252, 25.24999999999994700 ) ;
#32 = ORIENTED_EDGE ( 'NONE', *, *, #127, .F. ) ;
#33 = AXIS2_PLACEMENT_3D ( 'NONE', #229, #378, #11 ) ;
#34 = EDGE_CURVE ( 'NONE', #26, #203, #324, .T. ) ;
#35 = CYLINDRICAL_SURFACE ( 'NONE', #309, 2.750000000000001800 ) ;
#36 = CARTESIAN_POINT ( 'NONE',  ( 3.898362565878096100E-015, -12.74999999999994700, 0.0000000000000000000 ) ) ;
#37 = LINE ( 'NONE', #215, #70 ) ;
#38 = EDGE_CURVE ( 'NONE', #168, #196, #343, .T. ) ;
#39 = MECHANICAL_DESIGN_GEOMETRIC_PRESENTATION_REPRESENTATION (  '', ( #53 ), #3 ) ;
#40 = DIRECTION ( 'NONE',  ( -1.000000000000000000, 0.0000000000000000000, 0.0000000000000000000 ) ) ;
#41 = AXIS2_PLACEMENT_3D ( 'NONE', #396, #154, #8 ) ;
#42 = ORIENTED_EDGE ( 'NONE', *, *, #167, .T. ) ;
#43 = APPLICATION_PROTOCOL_DEFINITION ( 'draft international standard', 'automotive_design', 1998, #242 ) ;
#44 = CIRCLE ( 'NONE', #272, 2.100000000000001900 ) ;
#45 = AXIS2_PLACEMENT_3D ( 'NONE', #238, #323, #356 ) ;
#46 = ORIENTED_EDGE ( 'NONE', *, *, #124, .F. ) ;
#47 = FILL_AREA_STYLE_COLOUR ( '', #243 ) ;
#48 = CARTESIAN_POINT ( 'NONE',  ( 5.000000000000000900, 9.000000000000000000, 6.123233995736767300E-016 ) ) ;
#49 = DIRECTION ( 'NONE',  ( 1.000000000000000000, 0.0000000000000000000, 1.224646799147353200E-016 ) ) ;
#50 = DIRECTION ( 'NONE',  ( -1.212970340425829900E-017, 1.000000000000000000, -0.0000000000000000000 ) ) ;
#51 = CLOSED_SHELL ( 'NONE', ( #281, #90, #121, #222, #59, #277, #372, #255, #28, #1, #87, #30, #227, #152 ) ) ;
#52 = CYLINDRICAL_SURFACE ( 'NONE', #249, 1.650000000000001200 ) ;
#53 = STYLED_ITEM ( 'NONE', ( #73 ), #153 ) ;
#54 = CARTESIAN_POINT ( 'NONE',  ( -5.000000000000000900, 9.000000000000000000, 0.0000000000000000000 ) ) ;
#55 = AXIS2_PLACEMENT_3D ( 'NONE', #13, #322, #385 ) ;
#56 = CARTESIAN_POINT ( 'NONE',  ( 5.138204138844104800E-015, 12.49999999999999800, 0.0000000000000000000 ) ) ;
#57 =( LENGTH_UNIT ( ) NAMED_UNIT ( * ) SI_UNIT ( .MILLI., .METRE. ) );
#58 = EDGE_CURVE ( 'NONE', #64, #193, #311, .T. ) ;
#59 = ADVANCED_FACE ( 'NONE', ( #134 ), #52, .F. ) ;
#60 = EDGE_CURVE ( 'NONE', #203, #271, #66, .T. ) ;
#61 = FACE_BOUND ( 'NONE', #5, .T. ) ;
#62 = CYLINDRICAL_SURFACE ( 'NONE', #21, 5.000000000000000000 ) ;
#63 = EDGE_LOOP ( 'NONE', ( #7, #388, #232, #156 ) ) ;
#64 = VERTEX_POINT ( 'NONE', #25 ) ;
#65 = AXIS2_PLACEMENT_3D ( 'NONE', #341, #254, #366 ) ;
#66 = LINE ( 'NONE', #81, #234 ) ;
#67 = SURFACE_SIDE_STYLE ('',( #367 ) ) ;
#68 = EDGE_LOOP ( 'NONE', ( #384, #331, #183, #263 ) ) ;
#69 = PRESENTATION_LAYER_ASSIGNMENT (  '', '', ( #383 ) ) ;
#70 = VECTOR ( 'NONE', #84, 1000.000000000000000 ) ;
#71 = DIRECTION ( 'NONE',  ( -1.212970340425829900E-017, 1.000000000000000000, -0.0000000000000000000 ) ) ;
#72 = DIRECTION ( 'NONE',  ( 0.0000000000000000000, 0.0000000000000000000, 1.000000000000000000 ) ) ;
#73 = PRESENTATION_STYLE_ASSIGNMENT (( #292 ) ) ;
#74 = AXIS2_PLACEMENT_3D ( 'NONE', #247, #144, #147 ) ;
#75 = ORIENTED_EDGE ( 'NONE', *, *, #231, .T. ) ;
#76 =( LENGTH_UNIT ( ) NAMED_UNIT ( * ) SI_UNIT ( .MILLI., .METRE. ) );
#77 = FACE_OUTER_BOUND ( 'NONE', #265, .T. ) ;
#78 = ORIENTED_EDGE ( 'NONE', *, *, #269, .T. ) ;
#79 = CARTESIAN_POINT ( 'NONE',  ( -2.100000000000001900, -2.547237714894245200E-017, 0.0000000000000000000 ) ) ;
#80 =( GEOMETRIC_REPRESENTATION_CONTEXT ( 3 ) GLOBAL_UNCERTAINTY_ASSIGNED_CONTEXT ( ( #321 ) ) GLOBAL_UNIT_ASSIGNED_CONTEXT ( ( #57, #184, #2 ) ) REPRESENTATION_CONTEXT ( 'NONE', 'WORKASPACE' ) );
#81 = CARTESIAN_POINT ( 'NONE',  ( 1.650000000000001200, 11.70000000000000100, 2.020667218593134500E-016 ) ) ;
#82 = CARTESIAN_POINT ( 'NONE',  ( -3.349731258127166000E-017, 11.70000000000000100, 0.0000000000000000000 ) ) ;
#83 = CARTESIAN_POINT ( 'NONE',  ( 3.898362565878096100E-015, -12.74999999999994700, 0.0000000000000000000 ) ) ;
#84 = DIRECTION ( 'NONE',  ( -1.212970340425829900E-017, 1.000000000000000000, -0.0000000000000000000 ) ) ;
#85 = ORIENTED_EDGE ( 'NONE', *, *, #157, .F. ) ;
#86 = DIRECTION ( 'NONE',  ( 0.3090860723375579200, 0.9510340687309482000, 3.785212691492175500E-017 ) ) ;
#87 = ADVANCED_FACE ( 'NONE', ( #305 ), #285, .T. ) ;
#88 = VERTEX_POINT ( 'NONE', #48 ) ;
#89 = CARTESIAN_POINT ( 'NONE',  ( -3.349731258127166000E-017, 11.70000000000000100, 0.0000000000000000000 ) ) ;
#90 = ADVANCED_FACE ( 'NONE', ( #189 ), #62, .T. ) ;
#91 = ORIENTED_EDGE ( 'NONE', *, *, #336, .F. ) ;
#92 = VERTEX_POINT ( 'NONE', #56 ) ;
#93 = ORIENTED_EDGE ( 'NONE', *, *, #256, .T. ) ;
#94 = LINE ( 'NONE', #79, #286 ) ;
#95 = AXIS2_PLACEMENT_3D ( 'NONE', #211, #136, #106 ) ;
#96 = DIRECTION ( 'NONE',  ( 1.000000000000000000, 0.0000000000000000000, 0.0000000000000000000 ) ) ;
#97 = DIRECTION ( 'NONE',  ( -1.212970340425829900E-017, 1.000000000000000000, -0.0000000000000000000 ) ) ;
#98 = CIRCLE ( 'NONE', #210, 25.24999999999994700 ) ;
#99 = VERTEX_POINT ( 'NONE', #299 ) ;
#100 = DIRECTION ( 'NONE',  ( -1.212970340425829900E-017, 1.000000000000000000, -0.0000000000000000000 ) ) ;
#101 = DIRECTION ( 'NONE',  ( 0.0000000000000000000, 0.0000000000000000000, 1.000000000000000000 ) ) ;
#102 = DIRECTION ( 'NONE',  ( -1.212970340425829900E-017, 1.000000000000000000, -0.0000000000000000000 ) ) ;
#103 = CIRCLE ( 'NONE', #375, 2.750000000000001800 ) ;
#104 = SPHERICAL_SURFACE ( 'NONE', #202, 24.44999999999994600 ) ;
#105 = CIRCLE ( 'NONE', #178, 5.000000000000000900 ) ;
#106 = DIRECTION ( 'NONE',  ( -1.000000000000000000, -1.212970340425830000E-017, 0.0000000000000000000 ) ) ;
#107 = EDGE_CURVE ( 'NONE', #271, #216, #20, .T. ) ;
#108 = SURFACE_SIDE_STYLE ('',( #110 ) ) ;
#109 = DIRECTION ( 'NONE',  ( 0.0000000000000000000, 0.0000000000000000000, 1.000000000000000000 ) ) ;
#110 = SURFACE_STYLE_FILL_AREA ( #240 ) ;
#111 = EDGE_LOOP ( 'NONE', ( #85, #389, #291 ) ) ;
#112 = DIRECTION ( 'NONE',  ( -1.224646799147353200E-016, -1.485460244863167800E-033, 1.000000000000000000 ) ) ;
#113 = ORIENTED_EDGE ( 'NONE', *, *, #38, .F. ) ;
#114 = AXIS2_PLACEMENT_3D ( 'NONE', #376, #353, #374 ) ;
#115 = FACE_OUTER_BOUND ( 'NONE', #122, .T. ) ;
#116 = EDGE_CURVE ( 'NONE', #26, #126, #37, .T. ) ;
#117 = CARTESIAN_POINT ( 'NONE',  ( 3.898362565878096100E-015, -12.74999999999994700, 0.0000000000000000000 ) ) ;
#118 = DIRECTION ( 'NONE',  ( -1.000000000000000000, 0.0000000000000000000, 0.0000000000000000000 ) ) ;
#119 = CIRCLE ( 'NONE', #355, 2.750000000000001800 ) ;
#120 = CARTESIAN_POINT ( 'NONE',  ( 3.898362565878096100E-015, -12.74999999999994700, 0.0000000000000000000 ) ) ;
#121 = ADVANCED_FACE ( 'NONE', ( #318 ), #226, .T. ) ;
#122 = EDGE_LOOP ( 'NONE', ( #78, #185, #379, #296 ) ) ;
#123 = ORIENTED_EDGE ( 'NONE', *, *, #213, .T. ) ;
#124 = EDGE_CURVE ( 'NONE', #199, #190, #362, .T. ) ;
#125 = FACE_OUTER_BOUND ( 'NONE', #23, .T. ) ;
#126 = VERTEX_POINT ( 'NONE', #179 ) ;
#127 = EDGE_CURVE ( 'NONE', #196, #193, #94, .T. ) ;
#128 = PLANE ( 'NONE',  #171 ) ;
#129 = DIRECTION ( 'NONE',  ( -1.212970340425829900E-017, 1.000000000000000000, -0.0000000000000000000 ) ) ;
#130 = CARTESIAN_POINT ( 'NONE',  ( -1.650000000000000800, -2.001401061702620600E-017, 0.0000000000000000000 ) ) ;
#131 = VECTOR ( 'NONE', #102, 1000.000000000000000 ) ;
#132 = ORIENTED_EDGE ( 'NONE', *, *, #34, .T. ) ;
#133 = CARTESIAN_POINT ( 'NONE',  ( 2.750000000000001800, 9.000000000000000000, 0.0000000000000000000 ) ) ;
#134 = FACE_OUTER_BOUND ( 'NONE', #398, .T. ) ;
#135 = EDGE_CURVE ( 'NONE', #126, #216, #397, .T. ) ;
#136 = DIRECTION ( 'NONE',  ( -1.212970340425829900E-017, 1.000000000000000000, -0.0000000000000000000 ) ) ;
#137 = ORIENTED_EDGE ( 'NONE', *, *, #58, .F. ) ;
#138 = AXIS2_PLACEMENT_3D ( 'NONE', #225, #220, #29 ) ;
#139 = SHAPE_DEFINITION_REPRESENTATION ( #294, #153 ) ;
#140 = CYLINDRICAL_SURFACE ( 'NONE', #237, 2.750000000000001800 ) ;
#141 = ORIENTED_EDGE ( 'NONE', *, *, #290, .F. ) ;
#142 = ORIENTED_EDGE ( 'NONE', *, *, #290, .T. ) ;
#143 = AXIS2_PLACEMENT_3D ( 'NONE', #250, #148, #276 ) ;
#144 = DIRECTION ( 'NONE',  ( 0.0000000000000000000, 0.0000000000000000000, -1.000000000000000000 ) ) ;
#145 = ORIENTED_EDGE ( 'NONE', *, *, #269, .F. ) ;
#146 = AXIS2_PLACEMENT_3D ( 'NONE', #83, #112, #49 ) ;
#147 = DIRECTION ( 'NONE',  ( 1.000000000000000000, 0.0000000000000000000, 0.0000000000000000000 ) ) ;
#148 = DIRECTION ( 'NONE',  ( -1.212970340425829900E-017, 1.000000000000000000, -0.0000000000000000000 ) ) ;
#149 = EDGE_LOOP ( 'NONE', ( #327, #235, #340, #137 ) ) ;
#150 = DIRECTION ( 'NONE',  ( -1.000000000000000000, -1.212970340425830000E-017, 0.0000000000000000000 ) ) ;
#151 = ORIENTED_EDGE ( 'NONE', *, *, #135, .T. ) ;
#152 = ADVANCED_FACE ( 'NONE', ( #295 ), #140, .T. ) ;
#153 = ADVANCED_BREP_SHAPE_REPRESENTATION ( '2029511_KSTP1', ( #194, #241 ), #279 ) ;
#154 = DIRECTION ( 'NONE',  ( -1.212970340425829900E-017, 1.000000000000000000, -0.0000000000000000000 ) ) ;
#155 = AXIS2_PLACEMENT_3D ( 'NONE', #89, #163, #329 ) ;
#156 = ORIENTED_EDGE ( 'NONE', *, *, #256, .F. ) ;
#157 = EDGE_CURVE ( 'NONE', #271, #126, #15, .T. ) ;
#158 = EDGE_LOOP ( 'NONE', ( #141, #113 ) ) ;
#159 = AXIS2_PLACEMENT_3D ( 'NONE', #174, #359, #205 ) ;
#160 = VERTEX_POINT ( 'NONE', #54 ) ;
#161 = CARTESIAN_POINT ( 'NONE',  ( 1.650000000000001200, 11.64426162030734500, 2.020667218593134500E-016 ) ) ;
#162 = AXIS2_PLACEMENT_3D ( 'NONE', #120, #335, #218 ) ;
#163 = DIRECTION ( 'NONE',  ( -1.212970340425829900E-017, 1.000000000000000000, -0.0000000000000000000 ) ) ;
#164 = CARTESIAN_POINT ( 'NONE',  ( 1.084202172485504400E-016, 0.0000000000000000000, 0.0000000000000000000 ) ) ;
#165 = FACE_OUTER_BOUND ( 'NONE', #158, .T. ) ;
#166 = DIRECTION ( 'NONE',  ( -1.000000000000000000, 0.0000000000000000000, 0.0000000000000000000 ) ) ;
#167 = EDGE_CURVE ( 'NONE', #190, #199, #303, .T. ) ;
#168 = VERTEX_POINT ( 'NONE', #27 ) ;
#169 = PRODUCT_DEFINITION_FORMATION_WITH_SPECIFIED_SOURCE ( 'ANY', '', #251, .NOT_KNOWN. ) ;
#170 = DIRECTION ( 'NONE',  ( -1.000000000000000000, -1.212970340425830000E-017, 0.0000000000000000000 ) ) ;
#171 = AXIS2_PLACEMENT_3D ( 'NONE', #133, #9, #198 ) ;
#172 = ORIENTED_EDGE ( 'NONE', *, *, #313, .F. ) ;
#173 =( LENGTH_UNIT ( ) NAMED_UNIT ( * ) SI_UNIT ( .MILLI., .METRE. ) );
#174 = CARTESIAN_POINT ( 'NONE',  ( -3.349731258127166000E-017, 11.70000000000000100, 0.0000000000000000000 ) ) ;
#175 = CARTESIAN_POINT ( 'NONE',  ( 0.0000000000000000000, 0.0000000000000000000, 0.0000000000000000000 ) ) ;
#176 = CARTESIAN_POINT ( 'NONE',  ( -3.349731258127166000E-017, 11.70000000000000100, 0.0000000000000000000 ) ) ;
#177 = ORIENTED_EDGE ( 'NONE', *, *, #313, .T. ) ;
#178 = AXIS2_PLACEMENT_3D ( 'NONE', #346, #289, #310 ) ;
#179 = CARTESIAN_POINT ( 'NONE',  ( -1.650000000000001200, 11.64426162030734500, 0.0000000000000000000 ) ) ;
#180 = FACE_OUTER_BOUND ( 'NONE', #149, .T. ) ;
#181 = PRESENTATION_LAYER_ASSIGNMENT (  '', '', ( #53 ) ) ;
#182 = CYLINDRICAL_SURFACE ( 'NONE', #155, 1.650000000000001200 ) ;
#183 = ORIENTED_EDGE ( 'NONE', *, *, #167, .F. ) ;
#184 =( NAMED_UNIT ( * ) PLANE_ANGLE_UNIT ( ) SI_UNIT ( $, .RADIAN. ) );
#185 = ORIENTED_EDGE ( 'NONE', *, *, #191, .T. ) ;
#186 = MECHANICAL_DESIGN_GEOMETRIC_PRESENTATION_REPRESENTATION (  '', ( #383 ), #80 ) ;
#187 = FACE_OUTER_BOUND ( 'NONE', #111, .T. ) ;
#188 = FILL_AREA_STYLE ('',( #258 ) ) ;
#189 = FACE_OUTER_BOUND ( 'NONE', #68, .T. ) ;
#190 = VERTEX_POINT ( 'NONE', #399 ) ;
#191 = EDGE_CURVE ( 'NONE', #64, #212, #264, .T. ) ;
#192 = PRODUCT_RELATED_PRODUCT_CATEGORY ( 'part', '', ( #251 ) ) ;
#193 = VERTEX_POINT ( 'NONE', #4 ) ;
#194 = MANIFOLD_SOLID_BREP ( 'Rotation1', #51 ) ;
#195 = ORIENTED_EDGE ( 'NONE', *, *, #231, .F. ) ;
#196 = VERTEX_POINT ( 'NONE', #308 ) ;
#197 = CARTESIAN_POINT ( 'NONE',  ( -7.471133897742402800E-019, 9.000000000000000000, 0.0000000000000000000 ) ) ;
#198 = DIRECTION ( 'NONE',  ( -1.000000000000000000, -1.212970340425829900E-017, 0.0000000000000000000 ) ) ;
#199 = VERTEX_POINT ( 'NONE', #302 ) ;
#200 = CARTESIAN_POINT ( 'NONE',  ( -5.000000000000000000, 11.70000000000000100, 0.0000000000000000000 ) ) ;
#201 = LINE ( 'NONE', #206, #262 ) ;
#202 = AXIS2_PLACEMENT_3D ( 'NONE', #12, #101, #6 ) ;
#203 = VERTEX_POINT ( 'NONE', #371 ) ;
#204 = FACE_OUTER_BOUND ( 'NONE', #244, .T. ) ;
#205 = DIRECTION ( 'NONE',  ( -1.000000000000000000, 0.0000000000000000000, 0.0000000000000000000 ) ) ;
#206 = CARTESIAN_POINT ( 'NONE',  ( 5.000000000000000000, 11.70000000000000100, 6.123233995736766300E-016 ) ) ;
#207 =( NAMED_UNIT ( * ) SI_UNIT ( $, .STERADIAN. ) SOLID_ANGLE_UNIT ( ) );
#208 = ORIENTED_EDGE ( 'NONE', *, *, #34, .F. ) ;
#209 = PRODUCT_CONTEXT ( 'NONE', #242, 'mechanical' ) ;
#210 = AXIS2_PLACEMENT_3D ( 'NONE', #36, #14, #314 ) ;
#211 = CARTESIAN_POINT ( 'NONE',  ( 1.084202172485504400E-016, 0.0000000000000000000, 0.0000000000000000000 ) ) ;
#212 = VERTEX_POINT ( 'NONE', #221 ) ;
#213 = EDGE_CURVE ( 'NONE', #168, #64, #391, .T. ) ;
#214 = UNCERTAINTY_MEASURE_WITH_UNIT (LENGTH_MEASURE( 1.000000000000000100E-005 ), #76, 'distance_accuracy_value', 'NONE');
#215 = CARTESIAN_POINT ( 'NONE',  ( -1.650000000000001200, 11.70000000000000100, 0.0000000000000000000 ) ) ;
#216 = VERTEX_POINT ( 'NONE', #304 ) ;
#217 = CARTESIAN_POINT ( 'NONE',  ( 1.084202172485504400E-016, 0.0000000000000000000, 0.0000000000000000000 ) ) ;
#218 = DIRECTION ( 'NONE',  ( -1.000000000000000000, 0.0000000000000000000, 0.0000000000000000000 ) ) ;
#219 = CIRCLE ( 'NONE', #45, 2.750000000000001800 ) ;
#220 = DIRECTION ( 'NONE',  ( -1.212970340425829900E-017, 1.000000000000000000, -0.0000000000000000000 ) ) ;
#221 = CARTESIAN_POINT ( 'NONE',  ( 2.750000000000001800, 9.000000000000000000, 3.367778697655223000E-016 ) ) ;
#222 = ADVANCED_FACE ( 'NONE', ( #187 ), #257, .F. ) ;
#223 = CARTESIAN_POINT ( 'NONE',  ( 2.100000000000001900, 2.547237714894245200E-017, 2.571758278209444400E-016 ) ) ;
#224 = LINE ( 'NONE', #200, #131 ) ;
#225 = CARTESIAN_POINT ( 'NONE',  ( -3.282122256736581700E-017, 11.64426162030734500, 0.0000000000000000000 ) ) ;
#226 = SPHERICAL_SURFACE ( 'NONE', #74, 25.24999999999994700 ) ;
#227 = ADVANCED_FACE ( 'NONE', ( #253, #342 ), #128, .F. ) ;
#228 = EDGE_LOOP ( 'NONE', ( #400, #75, #328 ) ) ;
#229 = CARTESIAN_POINT ( 'NONE',  ( 1.084202172485504400E-016, 0.0000000000000000000, 0.0000000000000000000 ) ) ;
#230 = DIRECTION ( 'NONE',  ( -1.212970340425829900E-017, 1.000000000000000000, -0.0000000000000000000 ) ) ;
#231 = EDGE_CURVE ( 'NONE', #190, #92, #98, .T. ) ;
#232 = ORIENTED_EDGE ( 'NONE', *, *, #330, .T. ) ;
#233 = CARTESIAN_POINT ( 'NONE',  ( -7.471133897742402800E-019, 9.000000000000000000, 0.0000000000000000000 ) ) ;
#234 = VECTOR ( 'NONE', #246, 1000.000000000000000 ) ;
#235 = ORIENTED_EDGE ( 'NONE', *, *, #38, .T. ) ;
#236 = CARTESIAN_POINT ( 'NONE',  ( 3.898362565878096100E-015, -12.74999999999994700, 0.0000000000000000000 ) ) ;
#237 = AXIS2_PLACEMENT_3D ( 'NONE', #394, #301, #118 ) ;
#238 = CARTESIAN_POINT ( 'NONE',  ( -7.471133897742402800E-019, 9.000000000000000000, 0.0000000000000000000 ) ) ;
#239 = CYLINDRICAL_SURFACE ( 'NONE', #159, 5.000000000000000000 ) ;
#240 = FILL_AREA_STYLE ('',( #47 ) ) ;
#241 = AXIS2_PLACEMENT_3D ( 'NONE', #175, #109, #267 ) ;
#242 = APPLICATION_CONTEXT ( 'automotive_design' ) ;
#243 = COLOUR_RGB ( '',0.7529411764705882200, 0.7529411764705882200, 0.7529411764705882200 ) ;
#244 = EDGE_LOOP ( 'NONE', ( #401, #306, #248, #46 ) ) ;
#245 = CARTESIAN_POINT ( 'NONE',  ( -3.713622360254912700E-017, 11.99999999999999800, 0.0000000000000000000 ) ) ;
#246 = DIRECTION ( 'NONE',  ( -1.212970340425829900E-017, 1.000000000000000000, -0.0000000000000000000 ) ) ;
#247 = CARTESIAN_POINT ( 'NONE',  ( 3.898362565878096100E-015, -12.74999999999994700, 0.0000000000000000000 ) ) ;
#248 = ORIENTED_EDGE ( 'NONE', *, *, #351, .T. ) ;
#249 = AXIS2_PLACEMENT_3D ( 'NONE', #82, #24, #312 ) ;
#250 = CARTESIAN_POINT ( 'NONE',  ( -3.713622360254912700E-017, 11.99999999999999800, 0.0000000000000000000 ) ) ;
#251 = PRODUCT ( '2029511_KSTP1', '2029511_KSTP1', '', ( #209 ) ) ;
#252 = AXIS2_PLACEMENT_3D ( 'NONE', #236, #72, #96 ) ;
#253 = FACE_OUTER_BOUND ( 'NONE', #300, .T. ) ;
#254 = DIRECTION ( 'NONE',  ( 0.0000000000000000000, -0.0000000000000000000, -1.000000000000000000 ) ) ;
#255 = ADVANCED_FACE ( 'NONE', ( #165, #61 ), #284, .F. ) ;
#256 = EDGE_CURVE ( 'NONE', #212, #99, #119, .T. ) ;
#257 = SPHERICAL_SURFACE ( 'NONE', #162, 24.44999999999994600 ) ;
#258 = FILL_AREA_STYLE_COLOUR ( '', #334 ) ;
#259 = CARTESIAN_POINT ( 'NONE',  ( 1.650000000000001200, -1.251938631806933500E-016, 0.0000000000000000000 ) ) ;
#260 = DIRECTION ( 'NONE',  ( -1.000000000000000000, 0.0000000000000000000, 0.0000000000000000000 ) ) ;
#261 = DIRECTION ( 'NONE',  ( -1.212970340425829900E-017, 1.000000000000000000, -0.0000000000000000000 ) ) ;
#262 = VECTOR ( 'NONE', #266, 1000.000000000000000 ) ;
#263 = ORIENTED_EDGE ( 'NONE', *, *, #351, .F. ) ;
#264 = LINE ( 'NONE', #337, #369 ) ;
#265 = EDGE_LOOP ( 'NONE', ( #142, #123, #145, #32 ) ) ;
#266 = DIRECTION ( 'NONE',  ( -1.212970340425829900E-017, 1.000000000000000000, -0.0000000000000000000 ) ) ;
#267 = DIRECTION ( 'NONE',  ( 1.000000000000000000, 0.0000000000000000000, 0.0000000000000000000 ) ) ;
#268 = DIRECTION ( 'NONE',  ( 1.000000000000000000, 0.0000000000000000000, 0.0000000000000000000 ) ) ;
#269 = EDGE_CURVE ( 'NONE', #193, #64, #103, .T. ) ;
#270 = DIRECTION ( 'NONE',  ( -1.212970340425829900E-017, 1.000000000000000000, -0.0000000000000000000 ) ) ;
#271 = VERTEX_POINT ( 'NONE', #161 ) ;
#272 = AXIS2_PLACEMENT_3D ( 'NONE', #164, #350, #170 ) ;
#273 = DIRECTION ( 'NONE',  ( -1.000000000000000000, 0.0000000000000000000, 0.0000000000000000000 ) ) ;
#274 = DIRECTION ( 'NONE',  ( -1.212970340425829900E-017, 1.000000000000000000, -0.0000000000000000000 ) ) ;
#275 = CIRCLE ( 'NONE', #95, 1.650000000000000800 ) ;
#276 = DIRECTION ( 'NONE',  ( -1.000000000000000000, 0.0000000000000000000, 0.0000000000000000000 ) ) ;
#277 = ADVANCED_FACE ( 'NONE', ( #77 ), #348, .T. ) ;
#278 = ORIENTED_EDGE ( 'NONE', *, *, #60, .T. ) ;
#279 =( GEOMETRIC_REPRESENTATION_CONTEXT ( 3 ) GLOBAL_UNCERTAINTY_ASSIGNED_CONTEXT ( ( #214 ) ) GLOBAL_UNIT_ASSIGNED_CONTEXT ( ( #76, #19, #360 ) ) REPRESENTATION_CONTEXT ( 'NONE', 'WORKASPACE' ) );
#280 = SURFACE_STYLE_USAGE ( .BOTH. , #67 ) ;
#281 = ADVANCED_FACE ( 'NONE', ( #115 ), #35, .T. ) ;
#282 = VECTOR ( 'NONE', #86, 1000.000000000000000 ) ;
#283 = EDGE_LOOP ( 'NONE', ( #326, #93 ) ) ;
#284 = PLANE ( 'NONE',  #293 ) ;
#285 = SPHERICAL_SURFACE ( 'NONE', #320, 25.24999999999994700 ) ;
#286 = VECTOR ( 'NONE', #332, 1000.000000000000000 ) ;
#287 = CARTESIAN_POINT ( 'NONE',  ( -3.282122256736581700E-017, 11.64426162030734500, 0.0000000000000000000 ) ) ;
#288 = DIRECTION ( 'NONE',  ( -1.212970340425829900E-017, 1.000000000000000000, 0.0000000000000000000 ) ) ;
#289 = DIRECTION ( 'NONE',  ( -1.212970340425829900E-017, 1.000000000000000000, -0.0000000000000000000 ) ) ;
#290 = EDGE_CURVE ( 'NONE', #196, #168, #44, .T. ) ;
#291 = ORIENTED_EDGE ( 'NONE', *, *, #135, .F. ) ;
#292 = SURFACE_STYLE_USAGE ( .BOTH. , #108 ) ;
#293 = AXIS2_PLACEMENT_3D ( 'NONE', #259, #288, #347 ) ;
#294 = PRODUCT_DEFINITION_SHAPE ( 'NONE', 'NONE',  #364 ) ;
#295 = FACE_OUTER_BOUND ( 'NONE', #63, .T. ) ;
#296 = ORIENTED_EDGE ( 'NONE', *, *, #330, .F. ) ;
#297 = APPLICATION_PROTOCOL_DEFINITION ( 'draft international standard', 'automotive_design', 1998, #16 ) ;
#298 = DIRECTION ( 'NONE',  ( -1.212970340425829900E-017, 1.000000000000000000, -0.0000000000000000000 ) ) ;
#299 = CARTESIAN_POINT ( 'NONE',  ( -2.750000000000001800, 9.000000000000000000, 0.0000000000000000000 ) ) ;
#300 = EDGE_LOOP ( 'NONE', ( #339, #91 ) ) ;
#301 = DIRECTION ( 'NONE',  ( -1.212970340425829900E-017, 1.000000000000000000, -0.0000000000000000000 ) ) ;
#302 = CARTESIAN_POINT ( 'NONE',  ( 4.999999999999999100, 11.99999999999999600, 0.0000000000000000000 ) ) ;
#303 = CIRCLE ( 'NONE', #143, 4.999999999999999100 ) ;
#304 = CARTESIAN_POINT ( 'NONE',  ( 2.104660605686345300E-015, 11.70000000000000100, 0.0000000000000000000 ) ) ;
#305 = FACE_OUTER_BOUND ( 'NONE', #368, .T. ) ;
#306 = ORIENTED_EDGE ( 'NONE', *, *, #336, .T. ) ;
#307 = ORIENTED_EDGE ( 'NONE', *, *, #357, .T. ) ;
#308 = CARTESIAN_POINT ( 'NONE',  ( -2.100000000000001900, -2.547237714894245200E-017, 0.0000000000000000000 ) ) ;
#309 = AXIS2_PLACEMENT_3D ( 'NONE', #315, #100, #260 ) ;
#310 = DIRECTION ( 'NONE',  ( -1.000000000000000000, 0.0000000000000000000, 0.0000000000000000000 ) ) ;
#311 = CIRCLE ( 'NONE', #114, 2.750000000000001800 ) ;
#312 = DIRECTION ( 'NONE',  ( -1.000000000000000000, 0.0000000000000000000, 0.0000000000000000000 ) ) ;
#313 = EDGE_CURVE ( 'NONE', #126, #271, #17, .T. ) ;
#314 = DIRECTION ( 'NONE',  ( -1.000000000000000000, 0.0000000000000000000, -1.224646799147353200E-016 ) ) ;
#315 = CARTESIAN_POINT ( 'NONE',  ( -3.349731258127166000E-017, 11.70000000000000100, 0.0000000000000000000 ) ) ;
#316 = DIRECTION ( 'NONE',  ( -1.000000000000000000, 0.0000000000000000000, 0.0000000000000000000 ) ) ;
#317 = VECTOR ( 'NONE', #129, 1000.000000000000000 ) ;
#318 = FACE_OUTER_BOUND ( 'NONE', #228, .T. ) ;
#319 = ORIENTED_EDGE ( 'NONE', *, *, #107, .F. ) ;
#320 = AXIS2_PLACEMENT_3D ( 'NONE', #117, #363, #268 ) ;
#321 = UNCERTAINTY_MEASURE_WITH_UNIT (LENGTH_MEASURE( 1.000000000000000100E-005 ), #57, 'distance_accuracy_value', 'NONE');
#322 = DIRECTION ( 'NONE',  ( -1.212970340425829900E-017, 1.000000000000000000, -0.0000000000000000000 ) ) ;
#323 = DIRECTION ( 'NONE',  ( -1.212970340425829900E-017, 1.000000000000000000, -0.0000000000000000000 ) ) ;
#324 = CIRCLE ( 'NONE', #325, 1.650000000000000800 ) ;
#325 = AXIS2_PLACEMENT_3D ( 'NONE', #217, #50, #150 ) ;
#326 = ORIENTED_EDGE ( 'NONE', *, *, #402, .T. ) ;
#327 = ORIENTED_EDGE ( 'NONE', *, *, #213, .F. ) ;
#328 = ORIENTED_EDGE ( 'NONE', *, *, #357, .F. ) ;
#329 = DIRECTION ( 'NONE',  ( -1.000000000000000000, 0.0000000000000000000, 0.0000000000000000000 ) ) ;
#330 = EDGE_CURVE ( 'NONE', #193, #99, #22, .T. ) ;
#331 = ORIENTED_EDGE ( 'NONE', *, *, #393, .T. ) ;
#332 = DIRECTION ( 'NONE',  ( -0.3090860723375579200, 0.9510340687309482000, 0.0000000000000000000 ) ) ;
#333 = AXIS2_PLACEMENT_3D ( 'NONE', #287, #261, #166 ) ;
#334 = COLOUR_RGB ( '',0.7529411764705882200, 0.7529411764705882200, 0.7529411764705882200 ) ;
#335 = DIRECTION ( 'NONE',  ( 0.0000000000000000000, 0.0000000000000000000, 1.000000000000000000 ) ) ;
#336 = EDGE_CURVE ( 'NONE', #88, #160, #358, .T. ) ;
#337 = CARTESIAN_POINT ( 'NONE',  ( 2.750000000000001800, 11.70000000000000100, 3.367778697655223000E-016 ) ) ;
#338 = ORIENTED_EDGE ( 'NONE', *, *, #116, .T. ) ;
#339 = ORIENTED_EDGE ( 'NONE', *, *, #18, .F. ) ;
#340 = ORIENTED_EDGE ( 'NONE', *, *, #127, .T. ) ;
#341 = CARTESIAN_POINT ( 'NONE',  ( 3.898362565878096100E-015, -12.74999999999994700, 0.0000000000000000000 ) ) ;
#342 = FACE_BOUND ( 'NONE', #283, .T. ) ;
#343 = CIRCLE ( 'NONE', #41, 2.100000000000001900 ) ;
#344 = ORIENTED_EDGE ( 'NONE', *, *, #157, .T. ) ;
#345 = ORIENTED_EDGE ( 'NONE', *, *, #373, .F. ) ;
#346 = CARTESIAN_POINT ( 'NONE',  ( -7.471133897742402800E-019, 9.000000000000000000, 0.0000000000000000000 ) ) ;
#347 = DIRECTION ( 'NONE',  ( -1.000000000000000000, -1.212970340425829900E-017, 0.0000000000000000000 ) ) ;
#348 = CONICAL_SURFACE ( 'NONE', #33, 2.100000000000001900, 0.3142318990843380700 ) ;
#349 = DIRECTION ( 'NONE',  ( -1.000000000000000000, 0.0000000000000000000, 0.0000000000000000000 ) ) ;
#350 = DIRECTION ( 'NONE',  ( -1.212970340425829900E-017, 1.000000000000000000, -0.0000000000000000000 ) ) ;
#351 = EDGE_CURVE ( 'NONE', #160, #190, #224, .T. ) ;
#352 = PRESENTATION_STYLE_ASSIGNMENT (( #280 ) ) ;
#353 = DIRECTION ( 'NONE',  ( -1.212970340425829900E-017, 1.000000000000000000, -0.0000000000000000000 ) ) ;
#354 = FACE_OUTER_BOUND ( 'NONE', #10, .T. ) ;
#355 = AXIS2_PLACEMENT_3D ( 'NONE', #197, #230, #349 ) ;
#356 = DIRECTION ( 'NONE',  ( -1.000000000000000000, 0.0000000000000000000, 0.0000000000000000000 ) ) ;
#357 = EDGE_CURVE ( 'NONE', #199, #92, #31, .T. ) ;
#358 = CIRCLE ( 'NONE', #395, 5.000000000000000900 ) ;
#359 = DIRECTION ( 'NONE',  ( -1.212970340425829900E-017, 1.000000000000000000, -0.0000000000000000000 ) ) ;
#360 =( NAMED_UNIT ( * ) SI_UNIT ( $, .STERADIAN. ) SOLID_ANGLE_UNIT ( ) );
#361 = ORIENTED_EDGE ( 'NONE', *, *, #60, .F. ) ;
#362 = CIRCLE ( 'NONE', #390, 4.999999999999999100 ) ;
#363 = DIRECTION ( 'NONE',  ( 0.0000000000000000000, 0.0000000000000000000, -1.000000000000000000 ) ) ;
#364 = PRODUCT_DEFINITION ( 'UNKNOWN', '', #169, #387 ) ;
#365 = CONICAL_SURFACE ( 'NONE', #55, 2.100000000000001900, 0.3142318990843380700 ) ;
#366 = DIRECTION ( 'NONE',  ( -1.000000000000000000, 0.0000000000000000000, 0.0000000000000000000 ) ) ;
#367 = SURFACE_STYLE_FILL_AREA ( #188 ) ;
#368 = EDGE_LOOP ( 'NONE', ( #195, #42, #307 ) ) ;
#369 = VECTOR ( 'NONE', #274, 1000.000000000000000 ) ;
#370 = ORIENTED_EDGE ( 'NONE', *, *, #373, .T. ) ;
#371 = CARTESIAN_POINT ( 'NONE',  ( 1.650000000000001200, 2.001401061702620600E-017, 2.020667218593134200E-016 ) ) ;
#372 = ADVANCED_FACE ( 'NONE', ( #180 ), #365, .T. ) ;
#373 = EDGE_CURVE ( 'NONE', #203, #26, #275, .T. ) ;
#374 = DIRECTION ( 'NONE',  ( -1.000000000000000000, 0.0000000000000000000, 0.0000000000000000000 ) ) ;
#375 = AXIS2_PLACEMENT_3D ( 'NONE', #382, #71, #316 ) ;
#376 = CARTESIAN_POINT ( 'NONE',  ( 8.416081044003384600E-017, 2.000000000000000000, 0.0000000000000000000 ) ) ;
#377 = ORIENTED_EDGE ( 'NONE', *, *, #116, .F. ) ;
#378 = DIRECTION ( 'NONE',  ( -1.212970340425829900E-017, 1.000000000000000000, -0.0000000000000000000 ) ) ;
#379 = ORIENTED_EDGE ( 'NONE', *, *, #402, .F. ) ;
#380 = CARTESIAN_POINT ( 'NONE',  ( -2.750000000000001800, 11.70000000000000100, 0.0000000000000000000 ) ) ;
#381 = UNCERTAINTY_MEASURE_WITH_UNIT (LENGTH_MEASURE( 1.000000000000000100E-005 ), #173, 'distance_accuracy_value', 'NONE');
#382 = CARTESIAN_POINT ( 'NONE',  ( 8.416081044003384600E-017, 2.000000000000000000, 0.0000000000000000000 ) ) ;
#383 = STYLED_ITEM ( 'NONE', ( #352 ), #194 ) ;
#384 = ORIENTED_EDGE ( 'NONE', *, *, #18, .T. ) ;
#385 = DIRECTION ( 'NONE',  ( -1.000000000000000000, -1.212970340425830000E-017, 0.0000000000000000000 ) ) ;
#386 =( NAMED_UNIT ( * ) PLANE_ANGLE_UNIT ( ) SI_UNIT ( $, .RADIAN. ) );
#387 = PRODUCT_DEFINITION_CONTEXT ( 'detailed design', #16, 'design' ) ;
#388 = ORIENTED_EDGE ( 'NONE', *, *, #58, .T. ) ;
#389 = ORIENTED_EDGE ( 'NONE', *, *, #107, .T. ) ;
#390 = AXIS2_PLACEMENT_3D ( 'NONE', #245, #270, #273 ) ;
#391 = LINE ( 'NONE', #223, #282 ) ;
#392 = DIRECTION ( 'NONE',  ( -1.000000000000000000, 0.0000000000000000000, 0.0000000000000000000 ) ) ;
#393 = EDGE_CURVE ( 'NONE', #88, #199, #201, .T. ) ;
#394 = CARTESIAN_POINT ( 'NONE',  ( -3.349731258127166000E-017, 11.70000000000000100, 0.0000000000000000000 ) ) ;
#395 = AXIS2_PLACEMENT_3D ( 'NONE', #233, #97, #40 ) ;
#396 = CARTESIAN_POINT ( 'NONE',  ( 1.084202172485504400E-016, 0.0000000000000000000, 0.0000000000000000000 ) ) ;
#397 = CIRCLE ( 'NONE', #65, 24.44999999999994600 ) ;
#398 = EDGE_LOOP ( 'NONE', ( #345, #278, #344, #377 ) ) ;
#399 = CARTESIAN_POINT ( 'NONE',  ( -4.999999999999995600, 11.99999999999999600, -6.123233995736766300E-016 ) ) ;
#400 = ORIENTED_EDGE ( 'NONE', *, *, #124, .T. ) ;
#401 = ORIENTED_EDGE ( 'NONE', *, *, #393, .F. ) ;
#402 = EDGE_CURVE ( 'NONE', #99, #212, #219, .T. ) ;
ENDSEC;
END-ISO-10303-21;
