ISO-10303-21;
HEADER;
FILE_DESCRIPTION((''),'2;1');
FILE_NAME('2046026','2015-06-17T',('AndreasKeweloh'),(''),
'CREO PARAMETRIC BY PTC INC, 2015080','CREO PARAMETRIC BY PTC INC, 2015080','');
FILE_SCHEMA(('CONFIG_CONTROL_DESIGN'));
ENDSEC;
DATA;
#1=CARTESIAN_POINT('',(-3.5E1,0.E0,0.E0));
#2=DIRECTION('',(-1.E0,0.E0,0.E0));
#3=DIRECTION('',(0.E0,0.E0,-1.E0));
#4=AXIS2_PLACEMENT_3D('',#1,#2,#3);
#6=DIRECTION('',(1.E0,0.E0,0.E0));
#7=VECTOR('',#6,3.358578643763E1);
#8=CARTESIAN_POINT('',(-3.5E1,0.E0,-2.01E1));
#9=LINE('',#8,#7);
#10=CARTESIAN_POINT('',(-3.5E1,0.E0,0.E0));
#11=DIRECTION('',(1.E0,0.E0,0.E0));
#12=DIRECTION('',(0.E0,0.E0,-1.E0));
#13=AXIS2_PLACEMENT_3D('',#10,#11,#12);
#15=DIRECTION('',(1.E0,0.E0,0.E0));
#16=VECTOR('',#15,3.358578643763E1);
#17=CARTESIAN_POINT('',(-3.5E1,0.E0,2.01E1));
#18=LINE('',#17,#16);
#19=CARTESIAN_POINT('',(-3.5E1,0.E0,0.E0));
#20=DIRECTION('',(-1.E0,0.E0,0.E0));
#21=DIRECTION('',(0.E0,0.E0,-1.E0));
#22=AXIS2_PLACEMENT_3D('',#19,#20,#21);
#24=CARTESIAN_POINT('',(-3.5E1,0.E0,0.E0));
#25=DIRECTION('',(1.E0,0.E0,0.E0));
#26=DIRECTION('',(0.E0,0.E0,-1.E0));
#27=AXIS2_PLACEMENT_3D('',#24,#25,#26);
#29=CARTESIAN_POINT('',(-1.2E0,0.E0,0.E0));
#30=DIRECTION('',(-1.E0,0.E0,0.E0));
#31=DIRECTION('',(0.E0,0.E0,-1.E0));
#32=AXIS2_PLACEMENT_3D('',#29,#30,#31);
#34=DIRECTION('',(-1.E0,0.E0,0.E0));
#35=VECTOR('',#34,3.38E1);
#36=CARTESIAN_POINT('',(-1.2E0,0.E0,-2.15E1));
#37=LINE('',#36,#35);
#38=CARTESIAN_POINT('',(-1.2E0,0.E0,0.E0));
#39=DIRECTION('',(1.E0,0.E0,0.E0));
#40=DIRECTION('',(0.E0,0.E0,-1.E0));
#41=AXIS2_PLACEMENT_3D('',#38,#39,#40);
#43=DIRECTION('',(-1.E0,0.E0,0.E0));
#44=VECTOR('',#43,3.38E1);
#45=CARTESIAN_POINT('',(-1.2E0,0.E0,2.15E1));
#46=LINE('',#45,#44);
#47=CARTESIAN_POINT('',(0.E0,0.E0,-2.24E1));
#48=DIRECTION('',(0.E0,-1.E0,0.E0));
#49=DIRECTION('',(8.E-1,0.E0,6.E-1));
#50=AXIS2_PLACEMENT_3D('',#47,#48,#49);
#52=CARTESIAN_POINT('',(1.2E0,0.E0,0.E0));
#53=DIRECTION('',(1.E0,0.E0,0.E0));
#54=DIRECTION('',(0.E0,0.E0,-1.E0));
#55=AXIS2_PLACEMENT_3D('',#52,#53,#54);
#57=CARTESIAN_POINT('',(0.E0,0.E0,2.24E1));
#58=DIRECTION('',(0.E0,1.E0,0.E0));
#59=DIRECTION('',(8.E-1,0.E0,-6.E-1));
#60=AXIS2_PLACEMENT_3D('',#57,#58,#59);
#62=CARTESIAN_POINT('',(1.2E0,0.E0,0.E0));
#63=DIRECTION('',(-1.E0,0.E0,0.E0));
#64=DIRECTION('',(0.E0,0.E0,-1.E0));
#65=AXIS2_PLACEMENT_3D('',#62,#63,#64);
#67=CARTESIAN_POINT('',(3.5E1,0.E0,0.E0));
#68=DIRECTION('',(-1.E0,0.E0,0.E0));
#69=DIRECTION('',(0.E0,0.E0,-1.E0));
#70=AXIS2_PLACEMENT_3D('',#67,#68,#69);
#72=DIRECTION('',(-1.E0,0.E0,0.E0));
#73=VECTOR('',#72,3.38E1);
#74=CARTESIAN_POINT('',(3.5E1,0.E0,-2.15E1));
#75=LINE('',#74,#73);
#76=CARTESIAN_POINT('',(3.5E1,0.E0,0.E0));
#77=DIRECTION('',(1.E0,0.E0,0.E0));
#78=DIRECTION('',(0.E0,0.E0,-1.E0));
#79=AXIS2_PLACEMENT_3D('',#76,#77,#78);
#81=DIRECTION('',(-1.E0,0.E0,0.E0));
#82=VECTOR('',#81,3.38E1);
#83=CARTESIAN_POINT('',(3.5E1,0.E0,2.15E1));
#84=LINE('',#83,#82);
#85=CARTESIAN_POINT('',(3.5E1,0.E0,0.E0));
#86=DIRECTION('',(-1.E0,0.E0,0.E0));
#87=DIRECTION('',(0.E0,0.E0,-1.E0));
#88=AXIS2_PLACEMENT_3D('',#85,#86,#87);
#90=CARTESIAN_POINT('',(3.5E1,0.E0,0.E0));
#91=DIRECTION('',(1.E0,0.E0,0.E0));
#92=DIRECTION('',(0.E0,0.E0,-1.E0));
#93=AXIS2_PLACEMENT_3D('',#90,#91,#92);
#95=CARTESIAN_POINT('',(1.414213562373E0,0.E0,0.E0));
#96=DIRECTION('',(-1.E0,0.E0,0.E0));
#97=DIRECTION('',(0.E0,0.E0,-1.E0));
#98=AXIS2_PLACEMENT_3D('',#95,#96,#97);
#100=DIRECTION('',(1.E0,0.E0,0.E0));
#101=VECTOR('',#100,3.358578643763E1);
#102=CARTESIAN_POINT('',(1.414213562373E0,0.E0,-2.01E1));
#103=LINE('',#102,#101);
#104=CARTESIAN_POINT('',(1.414213562373E0,0.E0,0.E0));
#105=DIRECTION('',(1.E0,0.E0,0.E0));
#106=DIRECTION('',(0.E0,0.E0,-1.E0));
#107=AXIS2_PLACEMENT_3D('',#104,#105,#106);
#109=DIRECTION('',(1.E0,0.E0,0.E0));
#110=VECTOR('',#109,3.358578643763E1);
#111=CARTESIAN_POINT('',(1.414213562373E0,0.E0,2.01E1));
#112=LINE('',#111,#110);
#113=CARTESIAN_POINT('',(0.E0,0.E0,-2.24E1));
#114=DIRECTION('',(0.E0,1.E0,0.E0));
#115=DIRECTION('',(-5.237828008789E-1,0.E0,8.518518518519E-1));
#116=AXIS2_PLACEMENT_3D('',#113,#114,#115);
#118=CARTESIAN_POINT('',(-1.414213562373E0,0.E0,0.E0));
#119=DIRECTION('',(1.E0,0.E0,0.E0));
#120=DIRECTION('',(0.E0,0.E0,-1.E0));
#121=AXIS2_PLACEMENT_3D('',#118,#119,#120);
#123=CARTESIAN_POINT('',(0.E0,0.E0,2.24E1));
#124=DIRECTION('',(0.E0,-1.E0,0.E0));
#125=DIRECTION('',(-5.237828008789E-1,0.E0,-8.518518518519E-1));
#126=AXIS2_PLACEMENT_3D('',#123,#124,#125);
#128=CARTESIAN_POINT('',(-1.414213562373E0,0.E0,0.E0));
#129=DIRECTION('',(-1.E0,0.E0,0.E0));
#130=DIRECTION('',(0.E0,0.E0,-1.E0));
#131=AXIS2_PLACEMENT_3D('',#128,#129,#130);
#133=CARTESIAN_POINT('',(-3.5E1,0.E0,-2.01E1));
#134=CARTESIAN_POINT('',(-1.414213562373E0,0.E0,-2.01E1));
#135=VERTEX_POINT('',#133);
#136=VERTEX_POINT('',#134);
#137=CARTESIAN_POINT('',(1.414213562373E0,0.E0,-2.01E1));
#138=VERTEX_POINT('',#137);
#139=CARTESIAN_POINT('',(3.5E1,0.E0,-2.01E1));
#140=VERTEX_POINT('',#139);
#141=CARTESIAN_POINT('',(3.5E1,0.E0,-2.15E1));
#142=CARTESIAN_POINT('',(1.2E0,0.E0,-2.15E1));
#143=VERTEX_POINT('',#141);
#144=VERTEX_POINT('',#142);
#145=CARTESIAN_POINT('',(-1.2E0,0.E0,-2.15E1));
#146=VERTEX_POINT('',#145);
#147=CARTESIAN_POINT('',(-3.5E1,0.E0,-2.15E1));
#148=VERTEX_POINT('',#147);
#149=CARTESIAN_POINT('',(-3.5E1,0.E0,2.01E1));
#150=CARTESIAN_POINT('',(-1.414213562373E0,0.E0,2.01E1));
#151=VERTEX_POINT('',#149);
#152=VERTEX_POINT('',#150);
#153=CARTESIAN_POINT('',(1.414213562373E0,0.E0,2.01E1));
#154=VERTEX_POINT('',#153);
#155=CARTESIAN_POINT('',(3.5E1,0.E0,2.01E1));
#156=VERTEX_POINT('',#155);
#157=CARTESIAN_POINT('',(3.5E1,0.E0,2.15E1));
#158=CARTESIAN_POINT('',(1.2E0,0.E0,2.15E1));
#159=VERTEX_POINT('',#157);
#160=VERTEX_POINT('',#158);
#161=CARTESIAN_POINT('',(-1.2E0,0.E0,2.15E1));
#162=VERTEX_POINT('',#161);
#163=CARTESIAN_POINT('',(-3.5E1,0.E0,2.15E1));
#164=VERTEX_POINT('',#163);
#165=CARTESIAN_POINT('',(3.85E1,0.E0,0.E0));
#166=DIRECTION('',(-1.E0,0.E0,0.E0));
#167=DIRECTION('',(0.E0,0.E0,-1.E0));
#168=AXIS2_PLACEMENT_3D('',#165,#166,#167);
#169=CYLINDRICAL_SURFACE('',#168,2.01E1);
#171=ORIENTED_EDGE('',*,*,#170,.T.);
#173=ORIENTED_EDGE('',*,*,#172,.T.);
#175=ORIENTED_EDGE('',*,*,#174,.F.);
#177=ORIENTED_EDGE('',*,*,#176,.F.);
#178=EDGE_LOOP('',(#171,#173,#175,#177));
#179=FACE_OUTER_BOUND('',#178,.F.);
#180=ADVANCED_FACE('',(#179),#169,.F.);
#181=CARTESIAN_POINT('',(3.85E1,0.E0,0.E0));
#182=DIRECTION('',(-1.E0,0.E0,0.E0));
#183=DIRECTION('',(0.E0,0.E0,-1.E0));
#184=AXIS2_PLACEMENT_3D('',#181,#182,#183);
#185=CYLINDRICAL_SURFACE('',#184,2.01E1);
#186=ORIENTED_EDGE('',*,*,#170,.F.);
#188=ORIENTED_EDGE('',*,*,#187,.T.);
#189=ORIENTED_EDGE('',*,*,#174,.T.);
#191=ORIENTED_EDGE('',*,*,#190,.F.);
#192=EDGE_LOOP('',(#186,#188,#189,#191));
#193=FACE_OUTER_BOUND('',#192,.F.);
#194=ADVANCED_FACE('',(#193),#185,.F.);
#195=CARTESIAN_POINT('',(-3.5E1,0.E0,0.E0));
#196=DIRECTION('',(-1.E0,0.E0,0.E0));
#197=DIRECTION('',(0.E0,0.E0,-1.E0));
#198=AXIS2_PLACEMENT_3D('',#195,#196,#197);
#199=PLANE('',#198);
#201=ORIENTED_EDGE('',*,*,#200,.F.);
#203=ORIENTED_EDGE('',*,*,#202,.T.);
#204=EDGE_LOOP('',(#201,#203));
#205=FACE_OUTER_BOUND('',#204,.F.);
#206=ORIENTED_EDGE('',*,*,#187,.F.);
#207=ORIENTED_EDGE('',*,*,#176,.T.);
#208=EDGE_LOOP('',(#206,#207));
#209=FACE_BOUND('',#208,.F.);
#210=ADVANCED_FACE('',(#205,#209),#199,.T.);
#211=CARTESIAN_POINT('',(3.85E1,0.E0,0.E0));
#212=DIRECTION('',(-1.E0,0.E0,0.E0));
#213=DIRECTION('',(0.E0,0.E0,-1.E0));
#214=AXIS2_PLACEMENT_3D('',#211,#212,#213);
#215=CYLINDRICAL_SURFACE('',#214,2.15E1);
#217=ORIENTED_EDGE('',*,*,#216,.T.);
#218=ORIENTED_EDGE('',*,*,#200,.T.);
#220=ORIENTED_EDGE('',*,*,#219,.F.);
#222=ORIENTED_EDGE('',*,*,#221,.F.);
#223=EDGE_LOOP('',(#217,#218,#220,#222));
#224=FACE_OUTER_BOUND('',#223,.F.);
#225=ADVANCED_FACE('',(#224),#215,.T.);
#226=CARTESIAN_POINT('',(3.85E1,0.E0,0.E0));
#227=DIRECTION('',(-1.E0,0.E0,0.E0));
#228=DIRECTION('',(0.E0,0.E0,-1.E0));
#229=AXIS2_PLACEMENT_3D('',#226,#227,#228);
#230=CYLINDRICAL_SURFACE('',#229,2.15E1);
#231=ORIENTED_EDGE('',*,*,#216,.F.);
#233=ORIENTED_EDGE('',*,*,#232,.T.);
#234=ORIENTED_EDGE('',*,*,#219,.T.);
#235=ORIENTED_EDGE('',*,*,#202,.F.);
#236=EDGE_LOOP('',(#231,#233,#234,#235));
#237=FACE_OUTER_BOUND('',#236,.F.);
#238=ADVANCED_FACE('',(#237),#230,.T.);
#239=CARTESIAN_POINT('',(0.E0,0.E0,0.E0));
#240=DIRECTION('',(-1.E0,0.E0,0.E0));
#241=DIRECTION('',(0.E0,0.E0,-1.E0));
#242=AXIS2_PLACEMENT_3D('',#239,#240,#241);
#243=TOROIDAL_SURFACE('',#242,2.24E1,1.5E0);
#245=ORIENTED_EDGE('',*,*,#244,.F.);
#247=ORIENTED_EDGE('',*,*,#246,.T.);
#249=ORIENTED_EDGE('',*,*,#248,.T.);
#250=ORIENTED_EDGE('',*,*,#232,.F.);
#251=EDGE_LOOP('',(#245,#247,#249,#250));
#252=FACE_OUTER_BOUND('',#251,.F.);
#253=ADVANCED_FACE('',(#252),#243,.F.);
#254=CARTESIAN_POINT('',(0.E0,0.E0,0.E0));
#255=DIRECTION('',(-1.E0,0.E0,0.E0));
#256=DIRECTION('',(0.E0,0.E0,-1.E0));
#257=AXIS2_PLACEMENT_3D('',#254,#255,#256);
#258=TOROIDAL_SURFACE('',#257,2.24E1,1.5E0);
#259=ORIENTED_EDGE('',*,*,#244,.T.);
#260=ORIENTED_EDGE('',*,*,#221,.T.);
#261=ORIENTED_EDGE('',*,*,#248,.F.);
#263=ORIENTED_EDGE('',*,*,#262,.F.);
#264=EDGE_LOOP('',(#259,#260,#261,#263));
#265=FACE_OUTER_BOUND('',#264,.F.);
#266=ADVANCED_FACE('',(#265),#258,.F.);
#267=CARTESIAN_POINT('',(3.85E1,0.E0,0.E0));
#268=DIRECTION('',(-1.E0,0.E0,0.E0));
#269=DIRECTION('',(0.E0,0.E0,-1.E0));
#270=AXIS2_PLACEMENT_3D('',#267,#268,#269);
#271=CYLINDRICAL_SURFACE('',#270,2.15E1);
#273=ORIENTED_EDGE('',*,*,#272,.T.);
#274=ORIENTED_EDGE('',*,*,#262,.T.);
#276=ORIENTED_EDGE('',*,*,#275,.F.);
#278=ORIENTED_EDGE('',*,*,#277,.F.);
#279=EDGE_LOOP('',(#273,#274,#276,#278));
#280=FACE_OUTER_BOUND('',#279,.F.);
#281=ADVANCED_FACE('',(#280),#271,.T.);
#282=CARTESIAN_POINT('',(3.85E1,0.E0,0.E0));
#283=DIRECTION('',(-1.E0,0.E0,0.E0));
#284=DIRECTION('',(0.E0,0.E0,-1.E0));
#285=AXIS2_PLACEMENT_3D('',#282,#283,#284);
#286=CYLINDRICAL_SURFACE('',#285,2.15E1);
#287=ORIENTED_EDGE('',*,*,#272,.F.);
#289=ORIENTED_EDGE('',*,*,#288,.T.);
#290=ORIENTED_EDGE('',*,*,#275,.T.);
#291=ORIENTED_EDGE('',*,*,#246,.F.);
#292=EDGE_LOOP('',(#287,#289,#290,#291));
#293=FACE_OUTER_BOUND('',#292,.F.);
#294=ADVANCED_FACE('',(#293),#286,.T.);
#295=CARTESIAN_POINT('',(3.5E1,0.E0,0.E0));
#296=DIRECTION('',(-1.E0,0.E0,0.E0));
#297=DIRECTION('',(0.E0,0.E0,-1.E0));
#298=AXIS2_PLACEMENT_3D('',#295,#296,#297);
#299=PLANE('',#298);
#300=ORIENTED_EDGE('',*,*,#288,.F.);
#301=ORIENTED_EDGE('',*,*,#277,.T.);
#302=EDGE_LOOP('',(#300,#301));
#303=FACE_OUTER_BOUND('',#302,.F.);
#305=ORIENTED_EDGE('',*,*,#304,.F.);
#307=ORIENTED_EDGE('',*,*,#306,.T.);
#308=EDGE_LOOP('',(#305,#307));
#309=FACE_BOUND('',#308,.F.);
#310=ADVANCED_FACE('',(#303,#309),#299,.F.);
#311=CARTESIAN_POINT('',(3.85E1,0.E0,0.E0));
#312=DIRECTION('',(-1.E0,0.E0,0.E0));
#313=DIRECTION('',(0.E0,0.E0,-1.E0));
#314=AXIS2_PLACEMENT_3D('',#311,#312,#313);
#315=CYLINDRICAL_SURFACE('',#314,2.01E1);
#317=ORIENTED_EDGE('',*,*,#316,.T.);
#318=ORIENTED_EDGE('',*,*,#304,.T.);
#320=ORIENTED_EDGE('',*,*,#319,.F.);
#322=ORIENTED_EDGE('',*,*,#321,.F.);
#323=EDGE_LOOP('',(#317,#318,#320,#322));
#324=FACE_OUTER_BOUND('',#323,.F.);
#325=ADVANCED_FACE('',(#324),#315,.F.);
#326=CARTESIAN_POINT('',(3.85E1,0.E0,0.E0));
#327=DIRECTION('',(-1.E0,0.E0,0.E0));
#328=DIRECTION('',(0.E0,0.E0,-1.E0));
#329=AXIS2_PLACEMENT_3D('',#326,#327,#328);
#330=CYLINDRICAL_SURFACE('',#329,2.01E1);
#331=ORIENTED_EDGE('',*,*,#316,.F.);
#333=ORIENTED_EDGE('',*,*,#332,.T.);
#334=ORIENTED_EDGE('',*,*,#319,.T.);
#335=ORIENTED_EDGE('',*,*,#306,.F.);
#336=EDGE_LOOP('',(#331,#333,#334,#335));
#337=FACE_OUTER_BOUND('',#336,.F.);
#338=ADVANCED_FACE('',(#337),#330,.F.);
#339=CARTESIAN_POINT('',(0.E0,0.E0,0.E0));
#340=DIRECTION('',(-1.E0,0.E0,0.E0));
#341=DIRECTION('',(0.E0,0.E0,-1.E0));
#342=AXIS2_PLACEMENT_3D('',#339,#340,#341);
#343=TOROIDAL_SURFACE('',#342,2.24E1,2.7E0);
#345=ORIENTED_EDGE('',*,*,#344,.F.);
#346=ORIENTED_EDGE('',*,*,#190,.T.);
#348=ORIENTED_EDGE('',*,*,#347,.T.);
#349=ORIENTED_EDGE('',*,*,#332,.F.);
#350=EDGE_LOOP('',(#345,#346,#348,#349));
#351=FACE_OUTER_BOUND('',#350,.F.);
#352=ADVANCED_FACE('',(#351),#343,.T.);
#353=CARTESIAN_POINT('',(0.E0,0.E0,0.E0));
#354=DIRECTION('',(-1.E0,0.E0,0.E0));
#355=DIRECTION('',(0.E0,0.E0,-1.E0));
#356=AXIS2_PLACEMENT_3D('',#353,#354,#355);
#357=TOROIDAL_SURFACE('',#356,2.24E1,2.7E0);
#358=ORIENTED_EDGE('',*,*,#344,.T.);
#359=ORIENTED_EDGE('',*,*,#321,.T.);
#360=ORIENTED_EDGE('',*,*,#347,.F.);
#361=ORIENTED_EDGE('',*,*,#172,.F.);
#362=EDGE_LOOP('',(#358,#359,#360,#361));
#363=FACE_OUTER_BOUND('',#362,.F.);
#364=ADVANCED_FACE('',(#363),#357,.T.);
#365=CLOSED_SHELL('',(#180,#194,#210,#225,#238,#253,#266,#281,#294,#310,#325,
#338,#352,#364));
#366=MANIFOLD_SOLID_BREP('',#365);
#368=DIMENSIONAL_EXPONENTS(0.E0,0.E0,0.E0,0.E0,0.E0,0.E0,0.E0);
#370=PLANE_ANGLE_MEASURE_WITH_UNIT(PLANE_ANGLE_MEASURE(1.745329251994E-2),#369);
#371=(CONVERSION_BASED_UNIT('DEGREE',#370)NAMED_UNIT(*)PLANE_ANGLE_UNIT());
#373=UNCERTAINTY_MEASURE_WITH_UNIT(LENGTH_MEASURE(1.E-2),#367,'closure',
'Maximum model space distance between geometric entities at asserted connectivities');
#374=(GEOMETRIC_REPRESENTATION_CONTEXT(3)GLOBAL_UNCERTAINTY_ASSIGNED_CONTEXT((
#373))GLOBAL_UNIT_ASSIGNED_CONTEXT((#367,#371,#372))REPRESENTATION_CONTEXT
('ID1','3'));
#376=APPLICATION_CONTEXT(
'CONFIGURATION CONTROLLED 3D DESIGNS OF MECHANICAL PARTS AND ASSEMBLIES');
#377=APPLICATION_PROTOCOL_DEFINITION('international standard',
'config_control_design',1994,#376);
#378=DESIGN_CONTEXT('',#376,'design');
#379=MECHANICAL_CONTEXT('',#376,'mechanical');
#380=PRODUCT('2046026','2046026','NOT SPECIFIED',(#379));
#381=PRODUCT_DEFINITION_FORMATION_WITH_SPECIFIED_SOURCE('3','LAST_VERSION',#380,
.MADE.);
#385=PRODUCT_CATEGORY('part','');
#386=PRODUCT_RELATED_PRODUCT_CATEGORY('detail','',(#380));
#387=PRODUCT_CATEGORY_RELATIONSHIP('','',#385,#386);
#388=SECURITY_CLASSIFICATION_LEVEL('unclassified');
#389=SECURITY_CLASSIFICATION('','',#388);
#390=CC_DESIGN_SECURITY_CLASSIFICATION(#389,(#381));
#391=APPROVAL_STATUS('approved');
#392=APPROVAL(#391,'');
#393=CC_DESIGN_APPROVAL(#392,(#389,#381,#382));
#394=CALENDAR_DATE(115,17,6);
#395=COORDINATED_UNIVERSAL_TIME_OFFSET(2,0,.AHEAD.);
#396=LOCAL_TIME(14,18,3.6E1,#395);
#397=DATE_AND_TIME(#394,#396);
#398=APPROVAL_DATE_TIME(#397,#392);
#399=DATE_TIME_ROLE('creation_date');
#400=CC_DESIGN_DATE_AND_TIME_ASSIGNMENT(#397,#399,(#382));
#401=DATE_TIME_ROLE('classification_date');
#402=CC_DESIGN_DATE_AND_TIME_ASSIGNMENT(#397,#401,(#389));
#403=PERSON('UNSPECIFIED','UNSPECIFIED',$,$,$,$);
#404=ORGANIZATION('UNSPECIFIED','UNSPECIFIED','UNSPECIFIED');
#405=PERSON_AND_ORGANIZATION(#403,#404);
#406=APPROVAL_ROLE('approver');
#407=APPROVAL_PERSON_ORGANIZATION(#405,#392,#406);
#408=PERSON_AND_ORGANIZATION_ROLE('creator');
#409=CC_DESIGN_PERSON_AND_ORGANIZATION_ASSIGNMENT(#405,#408,(#381,#382));
#410=PERSON_AND_ORGANIZATION_ROLE('design_supplier');
#411=CC_DESIGN_PERSON_AND_ORGANIZATION_ASSIGNMENT(#405,#410,(#381));
#412=PERSON_AND_ORGANIZATION_ROLE('classification_officer');
#413=CC_DESIGN_PERSON_AND_ORGANIZATION_ASSIGNMENT(#405,#412,(#389));
#414=PERSON_AND_ORGANIZATION_ROLE('design_owner');
#415=CC_DESIGN_PERSON_AND_ORGANIZATION_ASSIGNMENT(#405,#414,(#380));
#5=CIRCLE('',#4,2.01E1);
#14=CIRCLE('',#13,2.01E1);
#23=CIRCLE('',#22,2.15E1);
#28=CIRCLE('',#27,2.15E1);
#33=CIRCLE('',#32,2.15E1);
#42=CIRCLE('',#41,2.15E1);
#51=CIRCLE('',#50,1.5E0);
#56=CIRCLE('',#55,2.15E1);
#61=CIRCLE('',#60,1.5E0);
#66=CIRCLE('',#65,2.15E1);
#71=CIRCLE('',#70,2.15E1);
#80=CIRCLE('',#79,2.15E1);
#89=CIRCLE('',#88,2.01E1);
#94=CIRCLE('',#93,2.01E1);
#99=CIRCLE('',#98,2.01E1);
#108=CIRCLE('',#107,2.01E1);
#117=CIRCLE('',#116,2.7E0);
#122=CIRCLE('',#121,2.01E1);
#127=CIRCLE('',#126,2.7E0);
#132=CIRCLE('',#131,2.01E1);
#170=EDGE_CURVE('',#135,#136,#9,.T.);
#172=EDGE_CURVE('',#136,#152,#132,.T.);
#174=EDGE_CURVE('',#151,#152,#18,.T.);
#176=EDGE_CURVE('',#135,#151,#5,.T.);
#187=EDGE_CURVE('',#135,#151,#14,.T.);
#190=EDGE_CURVE('',#136,#152,#122,.T.);
#200=EDGE_CURVE('',#148,#164,#23,.T.);
#202=EDGE_CURVE('',#148,#164,#28,.T.);
#216=EDGE_CURVE('',#146,#148,#37,.T.);
#219=EDGE_CURVE('',#162,#164,#46,.T.);
#221=EDGE_CURVE('',#146,#162,#33,.T.);
#232=EDGE_CURVE('',#146,#162,#42,.T.);
#244=EDGE_CURVE('',#144,#146,#51,.T.);
#246=EDGE_CURVE('',#144,#160,#56,.T.);
#248=EDGE_CURVE('',#160,#162,#61,.T.);
#262=EDGE_CURVE('',#144,#160,#66,.T.);
#272=EDGE_CURVE('',#143,#144,#75,.T.);
#275=EDGE_CURVE('',#159,#160,#84,.T.);
#277=EDGE_CURVE('',#143,#159,#71,.T.);
#288=EDGE_CURVE('',#143,#159,#80,.T.);
#304=EDGE_CURVE('',#140,#156,#89,.T.);
#306=EDGE_CURVE('',#140,#156,#94,.T.);
#316=EDGE_CURVE('',#138,#140,#103,.T.);
#319=EDGE_CURVE('',#154,#156,#112,.T.);
#321=EDGE_CURVE('',#138,#154,#99,.T.);
#332=EDGE_CURVE('',#138,#154,#108,.T.);
#344=EDGE_CURVE('',#136,#138,#117,.T.);
#347=EDGE_CURVE('',#152,#154,#127,.T.);
#367=(LENGTH_UNIT()NAMED_UNIT(*)SI_UNIT(.MILLI.,.METRE.));
#369=(NAMED_UNIT(*)PLANE_ANGLE_UNIT()SI_UNIT($,.RADIAN.));
#372=(NAMED_UNIT(*)SI_UNIT($,.STERADIAN.)SOLID_ANGLE_UNIT());
#375=ADVANCED_BREP_SHAPE_REPRESENTATION('',(#366),#374);
#382=PRODUCT_DEFINITION('design','',#381,#378);
#383=PRODUCT_DEFINITION_SHAPE('','SHAPE FOR 2046026.',#382);
#384=SHAPE_DEFINITION_REPRESENTATION(#383,#375);
ENDSEC;
END-ISO-10303-21;
