ISO-10303-21;
HEADER;
FILE_DESCRIPTION (( 'STEP AP214' ),
    '1' );
FILE_NAME ('bbbbb3403099.stp',
    '2021-03-25T10:01:30',
    ( '' ),
    ( '' ),
    'SwSTEP 2.0',
    'SolidWorks 2020',
    '' );
FILE_SCHEMA (( 'AUTOMOTIVE_DESIGN' ));
ENDSEC;

DATA;
#1 =( GEOMETRIC_REPRESENTATION_CONTEXT ( 3 ) GLOBAL_UNCERTAINTY_ASSIGNED_CONTEXT ( ( #36 ) ) GLOBAL_UNIT_ASSIGNED_CONTEXT ( ( #39, #13, #63 ) ) REPRESENTATION_CONTEXT ( 'NONE', 'WORKASPACE' ) );
#2 = SURFACE_STYLE_FILL_AREA ( #96 ) ;
#3 = PRODUCT_RELATED_PRODUCT_CATEGORY ( 'part', '', ( #59 ) ) ;
#4 = AXIS2_PLACEMENT_3D ( 'NONE', #67, #43, #134 ) ;
#5 = DIRECTION ( 'NONE',  ( 0.0000000000000000000, 1.000000000000000000, 0.0000000000000000000 ) ) ;
#6 = SURFACE_SIDE_STYLE ('',( #102 ) ) ;
#7 = UNCERTAINTY_MEASURE_WITH_UNIT (LENGTH_MEASURE( 1.000000000000000082E-05 ), #86, 'distance_accuracy_value', 'NONE');
#8 = CARTESIAN_POINT ( 'NONE',  ( 0.0000000000000000000, 1.500000000000000000, 0.0000000000000000000 ) ) ;
#9 = DIRECTION ( 'NONE',  ( 0.0000000000000000000, 0.0000000000000000000, -1.000000000000000000 ) ) ;
#10 = ADVANCED_FACE ( 'NONE', ( #45, #16 ), #92, .F. ) ;
#11 = CARTESIAN_POINT ( 'NONE',  ( 0.0000000000000000000, 1.500000000000000000, 0.0000000000000000000 ) ) ;
#12 = PRODUCT_CONTEXT ( 'NONE', #69, 'mechanical' ) ;
#13 =( NAMED_UNIT ( * ) PLANE_ANGLE_UNIT ( ) SI_UNIT ( $, .RADIAN. ) );
#14 =( GEOMETRIC_REPRESENTATION_CONTEXT ( 3 ) GLOBAL_UNCERTAINTY_ASSIGNED_CONTEXT ( ( #7 ) ) GLOBAL_UNIT_ASSIGNED_CONTEXT ( ( #86, #50, #95 ) ) REPRESENTATION_CONTEXT ( 'NONE', 'WORKASPACE' ) );
#15 = AXIS2_PLACEMENT_3D ( 'NONE', #116, #44, #35 ) ;
#16 = FACE_OUTER_BOUND ( 'NONE', #115, .T. ) ;
#17 = DIRECTION ( 'NONE',  ( 0.0000000000000000000, -0.0000000000000000000, 1.000000000000000000 ) ) ;
#18 = PRESENTATION_LAYER_ASSIGNMENT (  '', '', ( #77 ) ) ;
#19 =( NAMED_UNIT ( * ) PLANE_ANGLE_UNIT ( ) SI_UNIT ( $, .RADIAN. ) );
#20 = CYLINDRICAL_SURFACE ( 'NONE', #51, 20.00000000000000000 ) ;
#21 = PRODUCT_DEFINITION_FORMATION_WITH_SPECIFIED_SOURCE ( 'ANY', '', #59, .NOT_KNOWN. ) ;
#22 = APPLICATION_PROTOCOL_DEFINITION ( 'draft international standard', 'automotive_design', 1998, #53 ) ;
#23 = EDGE_LOOP ( 'NONE', ( #125 ) ) ;
#24 = EDGE_CURVE ( 'NONE', #61, #61, #126, .T. ) ;
#25 = ORIENTED_EDGE ( 'NONE', *, *, #100, .T. ) ;
#26 = UNCERTAINTY_MEASURE_WITH_UNIT (LENGTH_MEASURE( 1.000000000000000082E-05 ), #37, 'distance_accuracy_value', 'NONE');
#27 = ORIENTED_EDGE ( 'NONE', *, *, #100, .F. ) ;
#28 = FILL_AREA_STYLE_COLOUR ( '', #108 ) ;
#29 = MECHANICAL_DESIGN_GEOMETRIC_PRESENTATION_REPRESENTATION (  '', ( #97 ), #41 ) ;
#30 = FACE_OUTER_BOUND ( 'NONE', #23, .T. ) ;
#31 = CIRCLE ( 'NONE', #103, 20.00000000000000000 ) ;
#32 = FACE_OUTER_BOUND ( 'NONE', #99, .T. ) ;
#33 = VERTEX_POINT ( 'NONE', #121 ) ;
#34 = MECHANICAL_DESIGN_GEOMETRIC_PRESENTATION_REPRESENTATION (  '', ( #77 ), #14 ) ;
#35 = DIRECTION ( 'NONE',  ( 0.0000000000000000000, 0.0000000000000000000, -1.000000000000000000 ) ) ;
#36 = UNCERTAINTY_MEASURE_WITH_UNIT (LENGTH_MEASURE( 1.000000000000000082E-05 ), #39, 'distance_accuracy_value', 'NONE');
#37 =( LENGTH_UNIT ( ) NAMED_UNIT ( * ) SI_UNIT ( .MILLI., .METRE. ) );
#38 = CARTESIAN_POINT ( 'NONE',  ( 0.0000000000000000000, 0.0000000000000000000, 0.0000000000000000000 ) ) ;
#39 =( LENGTH_UNIT ( ) NAMED_UNIT ( * ) SI_UNIT ( .MILLI., .METRE. ) );
#40 = CARTESIAN_POINT ( 'NONE',  ( 0.0000000000000000000, 1.500000000000000000, -3.200000000000000178 ) ) ;
#41 =( GEOMETRIC_REPRESENTATION_CONTEXT ( 3 ) GLOBAL_UNCERTAINTY_ASSIGNED_CONTEXT ( ( #26 ) ) GLOBAL_UNIT_ASSIGNED_CONTEXT ( ( #37, #19, #122 ) ) REPRESENTATION_CONTEXT ( 'NONE', 'WORKASPACE' ) );
#42 = SURFACE_SIDE_STYLE ('',( #2 ) ) ;
#43 = DIRECTION ( 'NONE',  ( 0.0000000000000000000, 0.0000000000000000000, 1.000000000000000000 ) ) ;
#44 = DIRECTION ( 'NONE',  ( -0.0000000000000000000, -1.000000000000000000, -0.0000000000000000000 ) ) ;
#45 = FACE_BOUND ( 'NONE', #85, .T. ) ;
#46 = SURFACE_STYLE_USAGE ( .BOTH. , #6 ) ;
#47 = CARTESIAN_POINT ( 'NONE',  ( 0.0000000000000000000, 0.0000000000000000000, 0.0000000000000000000 ) ) ;
#48 = VERTEX_POINT ( 'NONE', #40 ) ;
#49 = EDGE_CURVE ( 'NONE', #48, #48, #132, .T. ) ;
#50 =( NAMED_UNIT ( * ) PLANE_ANGLE_UNIT ( ) SI_UNIT ( $, .RADIAN. ) );
#51 = AXIS2_PLACEMENT_3D ( 'NONE', #11, #76, #120 ) ;
#52 = FACE_OUTER_BOUND ( 'NONE', #104, .T. ) ;
#53 = APPLICATION_CONTEXT ( 'automotive_design' ) ;
#54 = AXIS2_PLACEMENT_3D ( 'NONE', #101, #5, #70 ) ;
#55 = ORIENTED_EDGE ( 'NONE', *, *, #49, .T. ) ;
#56 = ORIENTED_EDGE ( 'NONE', *, *, #49, .F. ) ;
#57 = PRODUCT_DEFINITION_CONTEXT ( 'detailed design', #53, 'design' ) ;
#58 = FILL_AREA_STYLE ('',( #28 ) ) ;
#59 = PRODUCT ( 'bbbbb3403099', 'bbbbb3403099', '', ( #12 ) ) ;
#60 = AXIS2_PLACEMENT_3D ( 'NONE', #111, #118, #17 ) ;
#61 = VERTEX_POINT ( 'NONE', #106 ) ;
#62 = CIRCLE ( 'NONE', #81, 20.00000000000000000 ) ;
#63 =( NAMED_UNIT ( * ) SI_UNIT ( $, .STERADIAN. ) SOLID_ANGLE_UNIT ( ) );
#64 = EDGE_CURVE ( 'NONE', #33, #33, #62, .T. ) ;
#65 = AXIS2_PLACEMENT_3D ( 'NONE', #38, #119, #73 ) ;
#66 = EDGE_LOOP ( 'NONE', ( #55 ) ) ;
#67 = CARTESIAN_POINT ( 'NONE',  ( 0.0000000000000000000, 0.0000000000000000000, 0.0000000000000000000 ) ) ;
#68 = ORIENTED_EDGE ( 'NONE', *, *, #64, .T. ) ;
#69 = APPLICATION_CONTEXT ( 'automotive_design' ) ;
#70 = DIRECTION ( 'NONE',  ( 0.0000000000000000000, 0.0000000000000000000, -1.000000000000000000 ) ) ;
#71 = PRODUCT_DEFINITION ( 'UNKNOWN', '', #21, #57 ) ;
#72 = EDGE_LOOP ( 'NONE', ( #25 ) ) ;
#73 = DIRECTION ( 'NONE',  ( 0.0000000000000000000, -0.0000000000000000000, 1.000000000000000000 ) ) ;
#74 = VERTEX_POINT ( 'NONE', #133 ) ;
#75 = DIRECTION ( 'NONE',  ( 0.0000000000000000000, 0.0000000000000000000, -1.000000000000000000 ) ) ;
#76 = DIRECTION ( 'NONE',  ( -0.0000000000000000000, -1.000000000000000000, -0.0000000000000000000 ) ) ;
#77 = STYLED_ITEM ( 'NONE', ( #79 ), #105 ) ;
#78 = DIRECTION ( 'NONE',  ( -0.0000000000000000000, -1.000000000000000000, -0.0000000000000000000 ) ) ;
#79 = PRESENTATION_STYLE_ASSIGNMENT (( #123 ) ) ;
#80 = ADVANCED_FACE ( 'NONE', ( #129, #93 ), #130, .T. ) ;
#81 = AXIS2_PLACEMENT_3D ( 'NONE', #47, #83, #84 ) ;
#82 = COLOUR_RGB ( '',0.7529411764705882248, 0.7529411764705882248, 0.7529411764705882248 ) ;
#83 = DIRECTION ( 'NONE',  ( 0.0000000000000000000, 1.000000000000000000, 0.0000000000000000000 ) ) ;
#84 = DIRECTION ( 'NONE',  ( 0.0000000000000000000, 0.0000000000000000000, -1.000000000000000000 ) ) ;
#85 = EDGE_LOOP ( 'NONE', ( #110 ) ) ;
#86 =( LENGTH_UNIT ( ) NAMED_UNIT ( * ) SI_UNIT ( .MILLI., .METRE. ) );
#87 = FILL_AREA_STYLE_COLOUR ( '', #82 ) ;
#88 = PRODUCT_DEFINITION_SHAPE ( 'NONE', 'NONE',  #71 ) ;
#89 = CLOSED_SHELL ( 'NONE', ( #80, #112, #117, #10 ) ) ;
#90 = CARTESIAN_POINT ( 'NONE',  ( 0.0000000000000000000, 1.500000000000000000, 0.0000000000000000000 ) ) ;
#91 = EDGE_LOOP ( 'NONE', ( #68 ) ) ;
#92 = PLANE ( 'NONE',  #65 ) ;
#93 = FACE_OUTER_BOUND ( 'NONE', #72, .T. ) ;
#94 = DIRECTION ( 'NONE',  ( 0.0000000000000000000, 1.000000000000000000, 0.0000000000000000000 ) ) ;
#95 =( NAMED_UNIT ( * ) SI_UNIT ( $, .STERADIAN. ) SOLID_ANGLE_UNIT ( ) );
#96 = FILL_AREA_STYLE ('',( #87 ) ) ;
#97 = STYLED_ITEM ( 'NONE', ( #113 ), #98 ) ;
#98 = MANIFOLD_SOLID_BREP ( 'Extrude1', #89 ) ;
#99 = EDGE_LOOP ( 'NONE', ( #56 ) ) ;
#100 = EDGE_CURVE ( 'NONE', #74, #74, #31, .T. ) ;
#101 = CARTESIAN_POINT ( 'NONE',  ( 0.0000000000000000000, 0.0000000000000000000, 0.0000000000000000000 ) ) ;
#102 = SURFACE_STYLE_FILL_AREA ( #58 ) ;
#103 = AXIS2_PLACEMENT_3D ( 'NONE', #90, #94, #75 ) ;
#104 = EDGE_LOOP ( 'NONE', ( #27 ) ) ;
#105 = ADVANCED_BREP_SHAPE_REPRESENTATION ( 'bbbbb3403099', ( #98, #4 ), #1 ) ;
#106 = CARTESIAN_POINT ( 'NONE',  ( 0.0000000000000000000, 0.0000000000000000000, -3.200000000000000178 ) ) ;
#107 = FACE_OUTER_BOUND ( 'NONE', #91, .T. ) ;
#108 = COLOUR_RGB ( '',0.7529411764705882248, 0.7529411764705882248, 0.7529411764705882248 ) ;
#109 = ORIENTED_EDGE ( 'NONE', *, *, #64, .F. ) ;
#110 = ORIENTED_EDGE ( 'NONE', *, *, #24, .T. ) ;
#111 = CARTESIAN_POINT ( 'NONE',  ( 0.0000000000000000000, 1.500000000000000000, 0.0000000000000000000 ) ) ;
#112 = ADVANCED_FACE ( 'NONE', ( #30, #32 ), #114, .F. ) ;
#113 = PRESENTATION_STYLE_ASSIGNMENT (( #46 ) ) ;
#114 = CYLINDRICAL_SURFACE ( 'NONE', #128, 3.200000000000000178 ) ;
#115 = EDGE_LOOP ( 'NONE', ( #109 ) ) ;
#116 = CARTESIAN_POINT ( 'NONE',  ( 0.0000000000000000000, 1.500000000000000000, 0.0000000000000000000 ) ) ;
#117 = ADVANCED_FACE ( 'NONE', ( #107, #52 ), #20, .T. ) ;
#118 = DIRECTION ( 'NONE',  ( 0.0000000000000000000, 1.000000000000000000, 0.0000000000000000000 ) ) ;
#119 = DIRECTION ( 'NONE',  ( 0.0000000000000000000, 1.000000000000000000, 0.0000000000000000000 ) ) ;
#120 = DIRECTION ( 'NONE',  ( 0.0000000000000000000, 0.0000000000000000000, -1.000000000000000000 ) ) ;
#121 = CARTESIAN_POINT ( 'NONE',  ( 0.0000000000000000000, 0.0000000000000000000, -20.00000000000000000 ) ) ;
#122 =( NAMED_UNIT ( * ) SI_UNIT ( $, .STERADIAN. ) SOLID_ANGLE_UNIT ( ) );
#123 = SURFACE_STYLE_USAGE ( .BOTH. , #42 ) ;
#124 = SHAPE_DEFINITION_REPRESENTATION ( #88, #105 ) ;
#125 = ORIENTED_EDGE ( 'NONE', *, *, #24, .F. ) ;
#126 = CIRCLE ( 'NONE', #54, 3.200000000000000178 ) ;
#127 = PRESENTATION_LAYER_ASSIGNMENT (  '', '', ( #97 ) ) ;
#128 = AXIS2_PLACEMENT_3D ( 'NONE', #8, #78, #9 ) ;
#129 = FACE_BOUND ( 'NONE', #66, .T. ) ;
#130 = PLANE ( 'NONE',  #60 ) ;
#131 = APPLICATION_PROTOCOL_DEFINITION ( 'draft international standard', 'automotive_design', 1998, #69 ) ;
#132 = CIRCLE ( 'NONE', #15, 3.200000000000000178 ) ;
#133 = CARTESIAN_POINT ( 'NONE',  ( 0.0000000000000000000, 1.500000000000000000, -20.00000000000000000 ) ) ;
#134 = DIRECTION ( 'NONE',  ( 1.000000000000000000, 0.0000000000000000000, 0.0000000000000000000 ) ) ;
ENDSEC;
END-ISO-10303-21;
