ISO-10303-21;
HEADER;
FILE_DESCRIPTION (( 'STEP AP214' ),
    '1' );
FILE_NAME ('aaaaa3403140.stp',
    '2021-03-25T10:00:55',
    ( '' ),
    ( '' ),
    'SwSTEP 2.0',
    'SolidWorks 2020',
    '' );
FILE_SCHEMA (( 'AUTOMOTIVE_DESIGN' ));
ENDSEC;

DATA;
#1 =( NAMED_UNIT ( * ) SI_UNIT ( $, .STERADIAN. ) SOLID_ANGLE_UNIT ( ) );
#2 = CARTESIAN_POINT ( 'NONE',  ( 0.0000000000000000000, 0.0000000000000000000, 0.0000000000000000000 ) ) ;
#3 = UNCERTAINTY_MEASURE_WITH_UNIT (LENGTH_MEASURE( 1.000000000000000082E-05 ), #94, 'distance_accuracy_value', 'NONE');
#4 = MANIFOLD_SOLID_BREP ( 'Extrude1', #126 ) ;
#5 = PLANE ( 'NONE',  #75 ) ;
#6 = COLOUR_RGB ( '',0.7529411764705882248, 0.7529411764705882248, 0.7529411764705882248 ) ;
#7 =( LENGTH_UNIT ( ) NAMED_UNIT ( * ) SI_UNIT ( .MILLI., .METRE. ) );
#8 = EDGE_LOOP ( 'NONE', ( #83 ) ) ;
#9 = EDGE_LOOP ( 'NONE', ( #103 ) ) ;
#10 = FILL_AREA_STYLE ('',( #22 ) ) ;
#11 =( GEOMETRIC_REPRESENTATION_CONTEXT ( 3 ) GLOBAL_UNCERTAINTY_ASSIGNED_CONTEXT ( ( #3 ) ) GLOBAL_UNIT_ASSIGNED_CONTEXT ( ( #94, #72, #60 ) ) REPRESENTATION_CONTEXT ( 'NONE', 'WORKASPACE' ) );
#12 = UNCERTAINTY_MEASURE_WITH_UNIT (LENGTH_MEASURE( 1.000000000000000082E-05 ), #27, 'distance_accuracy_value', 'NONE');
#13 = EDGE_CURVE ( 'NONE', #48, #48, #132, .T. ) ;
#14 = CARTESIAN_POINT ( 'NONE',  ( 0.0000000000000000000, 2.500000000000000000, 0.0000000000000000000 ) ) ;
#15 = DIRECTION ( 'NONE',  ( 0.0000000000000000000, 1.000000000000000000, 0.0000000000000000000 ) ) ;
#16 =( GEOMETRIC_REPRESENTATION_CONTEXT ( 3 ) GLOBAL_UNCERTAINTY_ASSIGNED_CONTEXT ( ( #90 ) ) GLOBAL_UNIT_ASSIGNED_CONTEXT ( ( #7, #127, #1 ) ) REPRESENTATION_CONTEXT ( 'NONE', 'WORKASPACE' ) );
#17 = DIRECTION ( 'NONE',  ( 0.0000000000000000000, 0.0000000000000000000, -1.000000000000000000 ) ) ;
#18 = SHAPE_DEFINITION_REPRESENTATION ( #65, #24 ) ;
#19 = CARTESIAN_POINT ( 'NONE',  ( 0.0000000000000000000, 2.500000000000000000, -20.00000000000000000 ) ) ;
#20 = EDGE_LOOP ( 'NONE', ( #42 ) ) ;
#21 = CARTESIAN_POINT ( 'NONE',  ( 0.0000000000000000000, 0.0000000000000000000, -4.200000000000000178 ) ) ;
#22 = FILL_AREA_STYLE_COLOUR ( '', #6 ) ;
#23 = MECHANICAL_DESIGN_GEOMETRIC_PRESENTATION_REPRESENTATION (  '', ( #64 ), #16 ) ;
#24 = ADVANCED_BREP_SHAPE_REPRESENTATION ( 'aaaaa3403140', ( #4, #118 ), #34 ) ;
#25 = DIRECTION ( 'NONE',  ( 0.0000000000000000000, 1.000000000000000000, 0.0000000000000000000 ) ) ;
#26 = CYLINDRICAL_SURFACE ( 'NONE', #43, 4.200000000000000178 ) ;
#27 =( LENGTH_UNIT ( ) NAMED_UNIT ( * ) SI_UNIT ( .MILLI., .METRE. ) );
#28 = ADVANCED_FACE ( 'NONE', ( #109, #100 ), #107, .T. ) ;
#29 = AXIS2_PLACEMENT_3D ( 'NONE', #14, #45, #77 ) ;
#30 = CARTESIAN_POINT ( 'NONE',  ( 0.0000000000000000000, 2.500000000000000000, 0.0000000000000000000 ) ) ;
#31 = ORIENTED_EDGE ( 'NONE', *, *, #85, .F. ) ;
#32 = FILL_AREA_STYLE ('',( #73 ) ) ;
#33 = ADVANCED_FACE ( 'NONE', ( #99, #47 ), #5, .F. ) ;
#34 =( GEOMETRIC_REPRESENTATION_CONTEXT ( 3 ) GLOBAL_UNCERTAINTY_ASSIGNED_CONTEXT ( ( #12 ) ) GLOBAL_UNIT_ASSIGNED_CONTEXT ( ( #27, #84, #134 ) ) REPRESENTATION_CONTEXT ( 'NONE', 'WORKASPACE' ) );
#35 = DIRECTION ( 'NONE',  ( 1.000000000000000000, 0.0000000000000000000, 0.0000000000000000000 ) ) ;
#36 = PRODUCT_DEFINITION_CONTEXT ( 'detailed design', #46, 'design' ) ;
#37 = PRESENTATION_LAYER_ASSIGNMENT (  '', '', ( #64 ) ) ;
#38 = DIRECTION ( 'NONE',  ( -0.0000000000000000000, -1.000000000000000000, -0.0000000000000000000 ) ) ;
#39 = DIRECTION ( 'NONE',  ( 0.0000000000000000000, -0.0000000000000000000, 1.000000000000000000 ) ) ;
#40 = CARTESIAN_POINT ( 'NONE',  ( 0.0000000000000000000, 2.500000000000000000, 0.0000000000000000000 ) ) ;
#41 = AXIS2_PLACEMENT_3D ( 'NONE', #66, #15, #39 ) ;
#42 = ORIENTED_EDGE ( 'NONE', *, *, #121, .F. ) ;
#43 = AXIS2_PLACEMENT_3D ( 'NONE', #122, #129, #76 ) ;
#44 = EDGE_CURVE ( 'NONE', #133, #133, #111, .T. ) ;
#45 = DIRECTION ( 'NONE',  ( -0.0000000000000000000, -1.000000000000000000, -0.0000000000000000000 ) ) ;
#46 = APPLICATION_CONTEXT ( 'automotive_design' ) ;
#47 = FACE_OUTER_BOUND ( 'NONE', #20, .T. ) ;
#48 = VERTEX_POINT ( 'NONE', #59 ) ;
#49 = COLOUR_RGB ( '',0.7529411764705882248, 0.7529411764705882248, 0.7529411764705882248 ) ;
#50 = CARTESIAN_POINT ( 'NONE',  ( 0.0000000000000000000, 0.0000000000000000000, 0.0000000000000000000 ) ) ;
#51 = ORIENTED_EDGE ( 'NONE', *, *, #121, .T. ) ;
#52 = VERTEX_POINT ( 'NONE', #21 ) ;
#53 = ORIENTED_EDGE ( 'NONE', *, *, #13, .F. ) ;
#54 = EDGE_LOOP ( 'NONE', ( #61 ) ) ;
#55 = SURFACE_SIDE_STYLE ('',( #105 ) ) ;
#56 = PRODUCT_RELATED_PRODUCT_CATEGORY ( 'part', '', ( #87 ) ) ;
#57 = DIRECTION ( 'NONE',  ( 0.0000000000000000000, 1.000000000000000000, 0.0000000000000000000 ) ) ;
#58 = DIRECTION ( 'NONE',  ( 0.0000000000000000000, -0.0000000000000000000, 1.000000000000000000 ) ) ;
#59 = CARTESIAN_POINT ( 'NONE',  ( 0.0000000000000000000, 2.500000000000000000, -4.200000000000000178 ) ) ;
#60 =( NAMED_UNIT ( * ) SI_UNIT ( $, .STERADIAN. ) SOLID_ANGLE_UNIT ( ) );
#61 = ORIENTED_EDGE ( 'NONE', *, *, #44, .F. ) ;
#62 = CARTESIAN_POINT ( 'NONE',  ( 0.0000000000000000000, 0.0000000000000000000, -20.00000000000000000 ) ) ;
#63 = EDGE_LOOP ( 'NONE', ( #31 ) ) ;
#64 = STYLED_ITEM ( 'NONE', ( #93 ), #4 ) ;
#65 = PRODUCT_DEFINITION_SHAPE ( 'NONE', 'NONE',  #96 ) ;
#66 = CARTESIAN_POINT ( 'NONE',  ( 0.0000000000000000000, 2.500000000000000000, 0.0000000000000000000 ) ) ;
#67 = AXIS2_PLACEMENT_3D ( 'NONE', #123, #57, #17 ) ;
#68 = APPLICATION_PROTOCOL_DEFINITION ( 'draft international standard', 'automotive_design', 1998, #46 ) ;
#69 = APPLICATION_PROTOCOL_DEFINITION ( 'draft international standard', 'automotive_design', 1998, #115 ) ;
#70 = AXIS2_PLACEMENT_3D ( 'NONE', #30, #38, #110 ) ;
#71 = SURFACE_STYLE_FILL_AREA ( #32 ) ;
#72 =( NAMED_UNIT ( * ) PLANE_ANGLE_UNIT ( ) SI_UNIT ( $, .RADIAN. ) );
#73 = FILL_AREA_STYLE_COLOUR ( '', #49 ) ;
#74 = STYLED_ITEM ( 'NONE', ( #81 ), #24 ) ;
#75 = AXIS2_PLACEMENT_3D ( 'NONE', #2, #25, #58 ) ;
#76 = DIRECTION ( 'NONE',  ( 0.0000000000000000000, 0.0000000000000000000, -1.000000000000000000 ) ) ;
#77 = DIRECTION ( 'NONE',  ( 0.0000000000000000000, 0.0000000000000000000, -1.000000000000000000 ) ) ;
#78 = ADVANCED_FACE ( 'NONE', ( #124, #130 ), #26, .F. ) ;
#79 = DIRECTION ( 'NONE',  ( 0.0000000000000000000, 0.0000000000000000000, -1.000000000000000000 ) ) ;
#80 = DIRECTION ( 'NONE',  ( 0.0000000000000000000, 0.0000000000000000000, -1.000000000000000000 ) ) ;
#81 = PRESENTATION_STYLE_ASSIGNMENT (( #117 ) ) ;
#82 = VERTEX_POINT ( 'NONE', #62 ) ;
#83 = ORIENTED_EDGE ( 'NONE', *, *, #13, .T. ) ;
#84 =( NAMED_UNIT ( * ) PLANE_ANGLE_UNIT ( ) SI_UNIT ( $, .RADIAN. ) );
#85 = EDGE_CURVE ( 'NONE', #52, #52, #106, .T. ) ;
#86 = CIRCLE ( 'NONE', #67, 20.00000000000000000 ) ;
#87 = PRODUCT ( 'aaaaa3403140', 'aaaaa3403140', '', ( #113 ) ) ;
#88 = DIRECTION ( 'NONE',  ( 0.0000000000000000000, 1.000000000000000000, 0.0000000000000000000 ) ) ;
#89 = FACE_BOUND ( 'NONE', #8, .T. ) ;
#90 = UNCERTAINTY_MEASURE_WITH_UNIT (LENGTH_MEASURE( 1.000000000000000082E-05 ), #7, 'distance_accuracy_value', 'NONE');
#91 = SURFACE_SIDE_STYLE ('',( #71 ) ) ;
#92 = AXIS2_PLACEMENT_3D ( 'NONE', #40, #88, #79 ) ;
#93 = PRESENTATION_STYLE_ASSIGNMENT (( #125 ) ) ;
#94 =( LENGTH_UNIT ( ) NAMED_UNIT ( * ) SI_UNIT ( .MILLI., .METRE. ) );
#95 = MECHANICAL_DESIGN_GEOMETRIC_PRESENTATION_REPRESENTATION (  '', ( #74 ), #11 ) ;
#96 = PRODUCT_DEFINITION ( 'UNKNOWN', '', #128, #36 ) ;
#97 = AXIS2_PLACEMENT_3D ( 'NONE', #112, #98, #80 ) ;
#98 = DIRECTION ( 'NONE',  ( 0.0000000000000000000, 1.000000000000000000, 0.0000000000000000000 ) ) ;
#99 = FACE_BOUND ( 'NONE', #116, .T. ) ;
#100 = FACE_OUTER_BOUND ( 'NONE', #54, .T. ) ;
#101 = PRESENTATION_LAYER_ASSIGNMENT (  '', '', ( #74 ) ) ;
#102 = EDGE_LOOP ( 'NONE', ( #53 ) ) ;
#103 = ORIENTED_EDGE ( 'NONE', *, *, #44, .T. ) ;
#104 = EDGE_LOOP ( 'NONE', ( #51 ) ) ;
#105 = SURFACE_STYLE_FILL_AREA ( #10 ) ;
#106 = CIRCLE ( 'NONE', #97, 4.200000000000000178 ) ;
#107 = CYLINDRICAL_SURFACE ( 'NONE', #29, 20.00000000000000000 ) ;
#108 = DIRECTION ( 'NONE',  ( 0.0000000000000000000, 0.0000000000000000000, 1.000000000000000000 ) ) ;
#109 = FACE_OUTER_BOUND ( 'NONE', #104, .T. ) ;
#110 = DIRECTION ( 'NONE',  ( 0.0000000000000000000, 0.0000000000000000000, -1.000000000000000000 ) ) ;
#111 = CIRCLE ( 'NONE', #92, 20.00000000000000000 ) ;
#112 = CARTESIAN_POINT ( 'NONE',  ( 0.0000000000000000000, 0.0000000000000000000, 0.0000000000000000000 ) ) ;
#113 = PRODUCT_CONTEXT ( 'NONE', #115, 'mechanical' ) ;
#114 = ORIENTED_EDGE ( 'NONE', *, *, #85, .T. ) ;
#115 = APPLICATION_CONTEXT ( 'automotive_design' ) ;
#116 = EDGE_LOOP ( 'NONE', ( #114 ) ) ;
#117 = SURFACE_STYLE_USAGE ( .BOTH. , #55 ) ;
#118 = AXIS2_PLACEMENT_3D ( 'NONE', #50, #108, #35 ) ;
#119 = ADVANCED_FACE ( 'NONE', ( #89, #120 ), #131, .T. ) ;
#120 = FACE_OUTER_BOUND ( 'NONE', #9, .T. ) ;
#121 = EDGE_CURVE ( 'NONE', #82, #82, #86, .T. ) ;
#122 = CARTESIAN_POINT ( 'NONE',  ( 0.0000000000000000000, 2.500000000000000000, 0.0000000000000000000 ) ) ;
#123 = CARTESIAN_POINT ( 'NONE',  ( 0.0000000000000000000, 0.0000000000000000000, 0.0000000000000000000 ) ) ;
#124 = FACE_OUTER_BOUND ( 'NONE', #63, .T. ) ;
#125 = SURFACE_STYLE_USAGE ( .BOTH. , #91 ) ;
#126 = CLOSED_SHELL ( 'NONE', ( #119, #78, #28, #33 ) ) ;
#127 =( NAMED_UNIT ( * ) PLANE_ANGLE_UNIT ( ) SI_UNIT ( $, .RADIAN. ) );
#128 = PRODUCT_DEFINITION_FORMATION_WITH_SPECIFIED_SOURCE ( 'ANY', '', #87, .NOT_KNOWN. ) ;
#129 = DIRECTION ( 'NONE',  ( -0.0000000000000000000, -1.000000000000000000, -0.0000000000000000000 ) ) ;
#130 = FACE_OUTER_BOUND ( 'NONE', #102, .T. ) ;
#131 = PLANE ( 'NONE',  #41 ) ;
#132 = CIRCLE ( 'NONE', #70, 4.200000000000000178 ) ;
#133 = VERTEX_POINT ( 'NONE', #19 ) ;
#134 =( NAMED_UNIT ( * ) SI_UNIT ( $, .STERADIAN. ) SOLID_ANGLE_UNIT ( ) );
ENDSEC;
END-ISO-10303-21;
