ISO-10303-21;
HEADER;
FILE_DESCRIPTION (( 'STEP AP214' ),
    '1' );
FILE_NAME ('6408703.stp',
    '2019-12-02T09:19:11',
    ( '' ),
    ( '' ),
    'SwSTEP 2.0',
    'SolidWorks 2018',
    '' );
FILE_SCHEMA (( 'AUTOMOTIVE_DESIGN' ));
ENDSEC;

DATA;
#1 = SURFACE_STYLE_FILL_AREA ( #101 ) ;
#2 = VERTEX_POINT ( 'NONE', #33 ) ;
#3 = MANIFOLD_SOLID_BREP ( 'Base-Revolve', #177 ) ;
#4 = COLOUR_RGB ( '',1.000000000000000000, 0.9490196078431372140, 0.9098039215686274384 ) ;
#5 = ADVANCED_FACE ( 'NONE', ( #28 ), #120, .T. ) ;
#6 = PRODUCT_DEFINITION ( 'UNKNOWN', '', #166, #118 ) ;
#7 = VERTEX_POINT ( 'NONE', #119 ) ;
#8 = DIRECTION ( 'NONE',  ( -1.000000000000000000, -0.0000000000000000000, -0.0000000000000000000 ) ) ;
#9 = ORIENTED_EDGE ( 'NONE', *, *, #78, .T. ) ;
#10 = DIRECTION ( 'NONE',  ( -1.000000000000000000, -0.0000000000000000000, -0.0000000000000000000 ) ) ;
#11 = DIRECTION ( 'NONE',  ( -1.000000000000000000, -0.0000000000000000000, -0.0000000000000000000 ) ) ;
#12 = DIRECTION ( 'NONE',  ( 0.0000000000000000000, 0.0000000000000000000, 1.000000000000000000 ) ) ;
#13 = EDGE_LOOP ( 'NONE', ( #15, #72 ) ) ;
#14 = EDGE_CURVE ( 'NONE', #137, #130, #25, .T. ) ;
#15 = ORIENTED_EDGE ( 'NONE', *, *, #122, .T. ) ;
#16 = EDGE_CURVE ( 'NONE', #61, #7, #202, .T. ) ;
#17 = DIRECTION ( 'NONE',  ( 0.0000000000000000000, 0.0000000000000000000, 1.000000000000000000 ) ) ;
#18 = FILL_AREA_STYLE_COLOUR ( '', #4 ) ;
#19 = MECHANICAL_DESIGN_GEOMETRIC_PRESENTATION_REPRESENTATION (  '', ( #50 ), #62 ) ;
#20 = DIRECTION ( 'NONE',  ( -1.000000000000000000, -0.0000000000000000000, -0.0000000000000000000 ) ) ;
#21 = CARTESIAN_POINT ( 'NONE',  ( 0.0000000000000000000, 1.347111479062088405E-15, -11.00000000000000000 ) ) ;
#22 = ORIENTED_EDGE ( 'NONE', *, *, #14, .F. ) ;
#23 = CARTESIAN_POINT ( 'NONE',  ( 0.0000000000000000000, 0.0000000000000000000, 3.299999999999999822 ) ) ;
#24 = CYLINDRICAL_SURFACE ( 'NONE', #102, 3.299999999999999822 ) ;
#25 = CIRCLE ( 'NONE', #82, 11.00000000000000000 ) ;
#26 = EDGE_CURVE ( 'NONE', #2, #7, #81, .T. ) ;
#27 = ORIENTED_EDGE ( 'NONE', *, *, #173, .T. ) ;
#28 = FACE_OUTER_BOUND ( 'NONE', #90, .T. ) ;
#29 = EDGE_CURVE ( 'NONE', #130, #54, #64, .T. ) ;
#30 = FACE_BOUND ( 'NONE', #108, .T. ) ;
#31 = AXIS2_PLACEMENT_3D ( 'NONE', #42, #10, #164 ) ;
#32 = VECTOR ( 'NONE', #117, 1000.000000000000000 ) ;
#33 = CARTESIAN_POINT ( 'NONE',  ( -2.000000000000001776, 0.0000000000000000000, 3.299999999999999822 ) ) ;
#34 = DIRECTION ( 'NONE',  ( 0.0000000000000000000, 0.0000000000000000000, 1.000000000000000000 ) ) ;
#35 = ADVANCED_FACE ( 'NONE', ( #206 ), #24, .F. ) ;
#36 = DIRECTION ( 'NONE',  ( 0.0000000000000000000, 0.0000000000000000000, 1.000000000000000000 ) ) ;
#37 = FACE_OUTER_BOUND ( 'NONE', #161, .T. ) ;
#38 = DIRECTION ( 'NONE',  ( -1.000000000000000000, -0.0000000000000000000, -0.0000000000000000000 ) ) ;
#39 = CARTESIAN_POINT ( 'NONE',  ( -34.92499999999994742, 0.0000000000000000000, 0.0000000000000000000 ) ) ;
#40 = PLANE ( 'NONE',  #140 ) ;
#41 = VERTEX_POINT ( 'NONE', #52 ) ;
#42 = CARTESIAN_POINT ( 'NONE',  ( -2.000000000000001776, 0.0000000000000000000, 0.0000000000000000000 ) ) ;
#43 = PRODUCT_DEFINITION_SHAPE ( 'NONE', 'NONE',  #6 ) ;
#44 = FILL_AREA_STYLE_COLOUR ( '', #112 ) ;
#45 = STYLED_ITEM ( 'NONE', ( #95 ), #98 ) ;
#46 = ORIENTED_EDGE ( 'NONE', *, *, #214, .T. ) ;
#47 = EDGE_CURVE ( 'NONE', #61, #116, #165, .T. ) ;
#48 = PRODUCT ( '6408703', '6408703', '', ( #63 ) ) ;
#49 = ORIENTED_EDGE ( 'NONE', *, *, #203, .F. ) ;
#50 = STYLED_ITEM ( 'NONE', ( #175 ), #3 ) ;
#51 =( NAMED_UNIT ( * ) SI_UNIT ( $, .STERADIAN. ) SOLID_ANGLE_UNIT ( ) );
#52 = CARTESIAN_POINT ( 'NONE',  ( -2.000000000000001776, 1.347111479062088405E-15, -11.00000000000000000 ) ) ;
#53 = SHAPE_DEFINITION_REPRESENTATION ( #43, #98 ) ;
#54 = VERTEX_POINT ( 'NONE', #156 ) ;
#55 =( NAMED_UNIT ( * ) PLANE_ANGLE_UNIT ( ) SI_UNIT ( $, .RADIAN. ) );
#56 = DIRECTION ( 'NONE',  ( 0.0000000000000000000, 0.0000000000000000000, 1.000000000000000000 ) ) ;
#57 = DIRECTION ( 'NONE',  ( -1.000000000000000000, -0.0000000000000000000, -0.0000000000000000000 ) ) ;
#58 = AXIS2_PLACEMENT_3D ( 'NONE', #39, #209, #106 ) ;
#59 = DIRECTION ( 'NONE',  ( -1.000000000000000000, 0.0000000000000000000, -0.0000000000000000000 ) ) ;
#60 = APPLICATION_PROTOCOL_DEFINITION ( 'draft international standard', 'automotive_design', 1998, #167 ) ;
#61 = VERTEX_POINT ( 'NONE', #154 ) ;
#62 =( GEOMETRIC_REPRESENTATION_CONTEXT ( 3 ) GLOBAL_UNCERTAINTY_ASSIGNED_CONTEXT ( ( #144 ) ) GLOBAL_UNIT_ASSIGNED_CONTEXT ( ( #157, #55, #51 ) ) REPRESENTATION_CONTEXT ( 'NONE', 'WORKASPACE' ) );
#63 = PRODUCT_CONTEXT ( 'NONE', #167, 'mechanical' ) ;
#64 = LINE ( 'NONE', #66, #32 ) ;
#65 = ADVANCED_FACE ( 'NONE', ( #68, #30 ), #40, .F. ) ;
#66 = CARTESIAN_POINT ( 'NONE',  ( -34.92499999999994742, 0.0000000000000000000, 11.00000000000000000 ) ) ;
#67 = ADVANCED_FACE ( 'NONE', ( #77, #188 ), #158, .F. ) ;
#68 = FACE_OUTER_BOUND ( 'NONE', #170, .T. ) ;
#69 = CARTESIAN_POINT ( 'NONE',  ( 0.0000000000000000000, 0.0000000000000000000, 0.0000000000000000000 ) ) ;
#70 = CARTESIAN_POINT ( 'NONE',  ( 0.0000000000000000000, 0.0000000000000000000, 0.0000000000000000000 ) ) ;
#71 = AXIS2_PLACEMENT_3D ( 'NONE', #176, #103, #121 ) ;
#72 = ORIENTED_EDGE ( 'NONE', *, *, #203, .T. ) ;
#73 = CARTESIAN_POINT ( 'NONE',  ( -2.000000000000000888, 11.00000000000000000, 0.0000000000000000000 ) ) ;
#74 = UNCERTAINTY_MEASURE_WITH_UNIT (LENGTH_MEASURE( 1.000000000000000082E-05 ), #162, 'distance_accuracy_value', 'NONE');
#75 = CARTESIAN_POINT ( 'NONE',  ( -2.000000000000001776, 0.0000000000000000000, 0.0000000000000000000 ) ) ;
#76 = DIRECTION ( 'NONE',  ( -0.0000000000000000000, 0.0000000000000000000, 1.000000000000000000 ) ) ;
#77 = FACE_BOUND ( 'NONE', #186, .T. ) ;
#78 = EDGE_CURVE ( 'NONE', #130, #137, #201, .T. ) ;
#79 = APPLICATION_PROTOCOL_DEFINITION ( 'draft international standard', 'automotive_design', 1998, #94 ) ;
#80 = PRESENTATION_LAYER_ASSIGNMENT (  '', '', ( #45 ) ) ;
#81 = CIRCLE ( 'NONE', #93, 3.299999999999999822 ) ;
#82 = AXIS2_PLACEMENT_3D ( 'NONE', #69, #192, #17 ) ;
#83 = ORIENTED_EDGE ( 'NONE', *, *, #171, .T. ) ;
#84 = EDGE_CURVE ( 'NONE', #137, #41, #180, .T. ) ;
#85 = ORIENTED_EDGE ( 'NONE', *, *, #29, .F. ) ;
#86 = CIRCLE ( 'NONE', #199, 11.00000000000000000 ) ;
#87 = CARTESIAN_POINT ( 'NONE',  ( -2.000000000000001776, 0.0000000000000000000, 0.0000000000000000000 ) ) ;
#88 = CARTESIAN_POINT ( 'NONE',  ( 0.0000000000000000000, 3.299999999999999822, 0.0000000000000000000 ) ) ;
#89 = MECHANICAL_DESIGN_GEOMETRIC_PRESENTATION_REPRESENTATION (  '', ( #45 ), #114 ) ;
#90 = EDGE_LOOP ( 'NONE', ( #96, #128, #204, #49 ) ) ;
#91 = DIRECTION ( 'NONE',  ( 0.0000000000000000000, 0.0000000000000000000, 1.000000000000000000 ) ) ;
#92 = AXIS2_PLACEMENT_3D ( 'NONE', #70, #20, #139 ) ;
#93 = AXIS2_PLACEMENT_3D ( 'NONE', #136, #8, #34 ) ;
#94 = APPLICATION_CONTEXT ( 'automotive_design' ) ;
#95 = PRESENTATION_STYLE_ASSIGNMENT (( #172 ) ) ;
#96 = ORIENTED_EDGE ( 'NONE', *, *, #84, .F. ) ;
#97 = PRESENTATION_LAYER_ASSIGNMENT (  '', '', ( #50 ) ) ;
#98 = ADVANCED_BREP_SHAPE_REPRESENTATION ( '6408703', ( #3, #134 ), #210 ) ;
#99 = ORIENTED_EDGE ( 'NONE', *, *, #16, .F. ) ;
#100 = CARTESIAN_POINT ( 'NONE',  ( -34.92499999999994742, 0.0000000000000000000, 0.0000000000000000000 ) ) ;
#101 = FILL_AREA_STYLE ('',( #18 ) ) ;
#102 = AXIS2_PLACEMENT_3D ( 'NONE', #100, #135, #36 ) ;
#103 = DIRECTION ( 'NONE',  ( -1.000000000000000000, -0.0000000000000000000, -0.0000000000000000000 ) ) ;
#104 = ORIENTED_EDGE ( 'NONE', *, *, #173, .F. ) ;
#105 =( NAMED_UNIT ( * ) SI_UNIT ( $, .STERADIAN. ) SOLID_ANGLE_UNIT ( ) );
#106 = DIRECTION ( 'NONE',  ( 0.0000000000000000000, 0.0000000000000000000, 1.000000000000000000 ) ) ;
#107 = AXIS2_PLACEMENT_3D ( 'NONE', #124, #160, #163 ) ;
#108 = EDGE_LOOP ( 'NONE', ( #83, #190 ) ) ;
#109 = DIRECTION ( 'NONE',  ( -1.000000000000000000, -0.0000000000000000000, -0.0000000000000000000 ) ) ;
#110 = SURFACE_STYLE_FILL_AREA ( #187 ) ;
#111 = AXIS2_PLACEMENT_3D ( 'NONE', #196, #11, #56 ) ;
#112 = COLOUR_RGB ( '',1.000000000000000000, 0.9490196078431372140, 0.9098039215686274384 ) ;
#113 = ORIENTED_EDGE ( 'NONE', *, *, #122, .F. ) ;
#114 =( GEOMETRIC_REPRESENTATION_CONTEXT ( 3 ) GLOBAL_UNCERTAINTY_ASSIGNED_CONTEXT ( ( #149 ) ) GLOBAL_UNIT_ASSIGNED_CONTEXT ( ( #213, #129, #185 ) ) REPRESENTATION_CONTEXT ( 'NONE', 'WORKASPACE' ) );
#115 = CIRCLE ( 'NONE', #92, 3.299999999999999822 ) ;
#116 = VERTEX_POINT ( 'NONE', #23 ) ;
#117 = DIRECTION ( 'NONE',  ( -1.000000000000000000, -0.0000000000000000000, -0.0000000000000000000 ) ) ;
#118 = PRODUCT_DEFINITION_CONTEXT ( 'detailed design', #94, 'design' ) ;
#119 = CARTESIAN_POINT ( 'NONE',  ( -2.000000000000001776, 4.041334437186265510E-16, -3.299999999999999822 ) ) ;
#120 = CYLINDRICAL_SURFACE ( 'NONE', #71, 11.00000000000000000 ) ;
#121 = DIRECTION ( 'NONE',  ( 0.0000000000000000000, 0.0000000000000000000, 1.000000000000000000 ) ) ;
#122 = EDGE_CURVE ( 'NONE', #54, #41, #86, .T. ) ;
#123 = DIRECTION ( 'NONE',  ( 1.000000000000000000, 0.0000000000000000000, 0.0000000000000000000 ) ) ;
#124 = CARTESIAN_POINT ( 'NONE',  ( 0.0000000000000000000, 0.0000000000000000000, 0.0000000000000000000 ) ) ;
#125 = CARTESIAN_POINT ( 'NONE',  ( -34.92499999999994742, 0.0000000000000000000, 3.299999999999999822 ) ) ;
#126 = ORIENTED_EDGE ( 'NONE', *, *, #214, .F. ) ;
#127 = CIRCLE ( 'NONE', #31, 11.00000000000000000 ) ;
#128 = ORIENTED_EDGE ( 'NONE', *, *, #14, .T. ) ;
#129 =( NAMED_UNIT ( * ) PLANE_ANGLE_UNIT ( ) SI_UNIT ( $, .RADIAN. ) );
#130 = VERTEX_POINT ( 'NONE', #145 ) ;
#131 = ORIENTED_EDGE ( 'NONE', *, *, #78, .F. ) ;
#132 = ORIENTED_EDGE ( 'NONE', *, *, #47, .F. ) ;
#133 = DIRECTION ( 'NONE',  ( -1.000000000000000000, -0.0000000000000000000, -0.0000000000000000000 ) ) ;
#134 = AXIS2_PLACEMENT_3D ( 'NONE', #182, #12, #168 ) ;
#135 = DIRECTION ( 'NONE',  ( -1.000000000000000000, -0.0000000000000000000, -0.0000000000000000000 ) ) ;
#136 = CARTESIAN_POINT ( 'NONE',  ( -2.000000000000001776, 0.0000000000000000000, 0.0000000000000000000 ) ) ;
#137 = VERTEX_POINT ( 'NONE', #21 ) ;
#138 = ADVANCED_FACE ( 'NONE', ( #37 ), #169, .F. ) ;
#139 = DIRECTION ( 'NONE',  ( 0.0000000000000000000, 0.0000000000000000000, 1.000000000000000000 ) ) ;
#140 = AXIS2_PLACEMENT_3D ( 'NONE', #88, #59, #76 ) ;
#141 = DIRECTION ( 'NONE',  ( -1.000000000000000000, -0.0000000000000000000, -0.0000000000000000000 ) ) ;
#142 = VECTOR ( 'NONE', #141, 1000.000000000000000 ) ;
#143 =( NAMED_UNIT ( * ) PLANE_ANGLE_UNIT ( ) SI_UNIT ( $, .RADIAN. ) );
#144 = UNCERTAINTY_MEASURE_WITH_UNIT (LENGTH_MEASURE( 1.000000000000000082E-05 ), #157, 'distance_accuracy_value', 'NONE');
#145 = CARTESIAN_POINT ( 'NONE',  ( 0.0000000000000000000, 0.0000000000000000000, 11.00000000000000000 ) ) ;
#146 = ORIENTED_EDGE ( 'NONE', *, *, #84, .T. ) ;
#147 = AXIS2_PLACEMENT_3D ( 'NONE', #73, #123, #208 ) ;
#148 = ORIENTED_EDGE ( 'NONE', *, *, #26, .F. ) ;
#149 = UNCERTAINTY_MEASURE_WITH_UNIT (LENGTH_MEASURE( 1.000000000000000082E-05 ), #213, 'distance_accuracy_value', 'NONE');
#150 = FACE_OUTER_BOUND ( 'NONE', #152, .T. ) ;
#151 = AXIS2_PLACEMENT_3D ( 'NONE', #87, #57, #195 ) ;
#152 = EDGE_LOOP ( 'NONE', ( #9, #146, #113, #85 ) ) ;
#153 = SURFACE_SIDE_STYLE ('',( #1 ) ) ;
#154 = CARTESIAN_POINT ( 'NONE',  ( 0.0000000000000000000, 4.041334437186265510E-16, -3.299999999999999822 ) ) ;
#155 = VECTOR ( 'NONE', #133, 1000.000000000000000 ) ;
#156 = CARTESIAN_POINT ( 'NONE',  ( -2.000000000000001776, 0.0000000000000000000, 11.00000000000000000 ) ) ;
#157 =( LENGTH_UNIT ( ) NAMED_UNIT ( * ) SI_UNIT ( .MILLI., .METRE. ) );
#158 = PLANE ( 'NONE',  #147 ) ;
#159 = CYLINDRICAL_SURFACE ( 'NONE', #191, 11.00000000000000000 ) ;
#160 = DIRECTION ( 'NONE',  ( -1.000000000000000000, -0.0000000000000000000, -0.0000000000000000000 ) ) ;
#161 = EDGE_LOOP ( 'NONE', ( #132, #200, #27, #126 ) ) ;
#162 =( LENGTH_UNIT ( ) NAMED_UNIT ( * ) SI_UNIT ( .MILLI., .METRE. ) );
#163 = DIRECTION ( 'NONE',  ( 0.0000000000000000000, 0.0000000000000000000, 1.000000000000000000 ) ) ;
#164 = DIRECTION ( 'NONE',  ( 0.0000000000000000000, 0.0000000000000000000, 1.000000000000000000 ) ) ;
#165 = CIRCLE ( 'NONE', #107, 3.299999999999999822 ) ;
#166 = PRODUCT_DEFINITION_FORMATION_WITH_SPECIFIED_SOURCE ( 'ANY', '', #48, .NOT_KNOWN. ) ;
#167 = APPLICATION_CONTEXT ( 'automotive_design' ) ;
#168 = DIRECTION ( 'NONE',  ( 1.000000000000000000, 0.0000000000000000000, 0.0000000000000000000 ) ) ;
#169 = CYLINDRICAL_SURFACE ( 'NONE', #58, 3.299999999999999822 ) ;
#170 = EDGE_LOOP ( 'NONE', ( #131, #22 ) ) ;
#171 = EDGE_CURVE ( 'NONE', #116, #61, #115, .T. ) ;
#172 = SURFACE_STYLE_USAGE ( .BOTH. , #212 ) ;
#173 = EDGE_CURVE ( 'NONE', #7, #2, #207, .T. ) ;
#174 = LINE ( 'NONE', #125, #142 ) ;
#175 = PRESENTATION_STYLE_ASSIGNMENT (( #179 ) ) ;
#176 = CARTESIAN_POINT ( 'NONE',  ( -34.92499999999994742, 0.0000000000000000000, 0.0000000000000000000 ) ) ;
#177 = CLOSED_SHELL ( 'NONE', ( #193, #138, #35, #65, #5, #67 ) ) ;
#178 = PRODUCT_RELATED_PRODUCT_CATEGORY ( 'part', '', ( #48 ) ) ;
#179 = SURFACE_STYLE_USAGE ( .BOTH. , #153 ) ;
#180 = LINE ( 'NONE', #211, #198 ) ;
#181 = EDGE_LOOP ( 'NONE', ( #99, #194, #46, #189 ) ) ;
#182 = CARTESIAN_POINT ( 'NONE',  ( 0.0000000000000000000, 0.0000000000000000000, 0.0000000000000000000 ) ) ;
#183 = CARTESIAN_POINT ( 'NONE',  ( -34.92499999999994742, 0.0000000000000000000, 0.0000000000000000000 ) ) ;
#184 = DIRECTION ( 'NONE',  ( 0.0000000000000000000, 0.0000000000000000000, 1.000000000000000000 ) ) ;
#185 =( NAMED_UNIT ( * ) SI_UNIT ( $, .STERADIAN. ) SOLID_ANGLE_UNIT ( ) );
#186 = EDGE_LOOP ( 'NONE', ( #148, #104 ) ) ;
#187 = FILL_AREA_STYLE ('',( #44 ) ) ;
#188 = FACE_OUTER_BOUND ( 'NONE', #13, .T. ) ;
#189 = ORIENTED_EDGE ( 'NONE', *, *, #26, .T. ) ;
#190 = ORIENTED_EDGE ( 'NONE', *, *, #47, .T. ) ;
#191 = AXIS2_PLACEMENT_3D ( 'NONE', #183, #38, #91 ) ;
#192 = DIRECTION ( 'NONE',  ( -1.000000000000000000, -0.0000000000000000000, -0.0000000000000000000 ) ) ;
#193 = ADVANCED_FACE ( 'NONE', ( #150 ), #159, .T. ) ;
#194 = ORIENTED_EDGE ( 'NONE', *, *, #171, .F. ) ;
#195 = DIRECTION ( 'NONE',  ( 0.0000000000000000000, 0.0000000000000000000, 1.000000000000000000 ) ) ;
#196 = CARTESIAN_POINT ( 'NONE',  ( 0.0000000000000000000, 0.0000000000000000000, 0.0000000000000000000 ) ) ;
#197 = DIRECTION ( 'NONE',  ( -1.000000000000000000, -0.0000000000000000000, -0.0000000000000000000 ) ) ;
#198 = VECTOR ( 'NONE', #109, 1000.000000000000000 ) ;
#199 = AXIS2_PLACEMENT_3D ( 'NONE', #75, #197, #184 ) ;
#200 = ORIENTED_EDGE ( 'NONE', *, *, #16, .T. ) ;
#201 = CIRCLE ( 'NONE', #111, 11.00000000000000000 ) ;
#202 = LINE ( 'NONE', #205, #155 ) ;
#203 = EDGE_CURVE ( 'NONE', #41, #54, #127, .T. ) ;
#204 = ORIENTED_EDGE ( 'NONE', *, *, #29, .T. ) ;
#205 = CARTESIAN_POINT ( 'NONE',  ( -34.92499999999994742, 4.041334437186265510E-16, -3.299999999999999822 ) ) ;
#206 = FACE_OUTER_BOUND ( 'NONE', #181, .T. ) ;
#207 = CIRCLE ( 'NONE', #151, 3.299999999999999822 ) ;
#208 = DIRECTION ( 'NONE',  ( 0.0000000000000000000, 0.0000000000000000000, -1.000000000000000000 ) ) ;
#209 = DIRECTION ( 'NONE',  ( -1.000000000000000000, -0.0000000000000000000, -0.0000000000000000000 ) ) ;
#210 =( GEOMETRIC_REPRESENTATION_CONTEXT ( 3 ) GLOBAL_UNCERTAINTY_ASSIGNED_CONTEXT ( ( #74 ) ) GLOBAL_UNIT_ASSIGNED_CONTEXT ( ( #162, #143, #105 ) ) REPRESENTATION_CONTEXT ( 'NONE', 'WORKASPACE' ) );
#211 = CARTESIAN_POINT ( 'NONE',  ( -34.92499999999994742, 1.347111479062088405E-15, -11.00000000000000000 ) ) ;
#212 = SURFACE_SIDE_STYLE ('',( #110 ) ) ;
#213 =( LENGTH_UNIT ( ) NAMED_UNIT ( * ) SI_UNIT ( .MILLI., .METRE. ) );
#214 = EDGE_CURVE ( 'NONE', #116, #2, #174, .T. ) ;
ENDSEC;
END-ISO-10303-21;
