ISO-10303-21;
HEADER;
FILE_DESCRIPTION (( 'STEP AP214' ),
    '1' );
FILE_NAME ('6408715.stp',
    '2019-12-02T09:20:04',
    ( '' ),
    ( '' ),
    'SwSTEP 2.0',
    'SolidWorks 2018',
    '' );
FILE_SCHEMA (( 'AUTOMOTIVE_DESIGN' ));
ENDSEC;

DATA;
#1 = ORIENTED_EDGE ( 'NONE', *, *, #119, .T. ) ;
#2 = CARTESIAN_POINT ( 'NONE',  ( -3.000000000000002665, 0.0000000000000000000, 0.0000000000000000000 ) ) ;
#3 = DIRECTION ( 'NONE',  ( -1.000000000000000000, -0.0000000000000000000, -0.0000000000000000000 ) ) ;
#4 = DIRECTION ( 'NONE',  ( 0.0000000000000000000, 0.0000000000000000000, 1.000000000000000000 ) ) ;
#5 = VERTEX_POINT ( 'NONE', #203 ) ;
#6 = FILL_AREA_STYLE_COLOUR ( '', #202 ) ;
#7 = STYLED_ITEM ( 'NONE', ( #20 ), #17 ) ;
#8 = CARTESIAN_POINT ( 'NONE',  ( 0.0000000000000000000, 0.0000000000000000000, 4.500000000000000000 ) ) ;
#9 = CARTESIAN_POINT ( 'NONE',  ( -3.000000000000002665, 5.510910596163088569E-16, -4.500000000000000000 ) ) ;
#10 = COLOUR_RGB ( '',1.000000000000000000, 0.9490196078431372140, 0.9098039215686274384 ) ;
#11 = DIRECTION ( 'NONE',  ( -1.000000000000000000, -0.0000000000000000000, -0.0000000000000000000 ) ) ;
#12 = AXIS2_PLACEMENT_3D ( 'NONE', #45, #3, #160 ) ;
#13 = ORIENTED_EDGE ( 'NONE', *, *, #55, .F. ) ;
#14 = EDGE_CURVE ( 'NONE', #5, #199, #158, .T. ) ;
#15 = ORIENTED_EDGE ( 'NONE', *, *, #73, .T. ) ;
#16 = PRODUCT_DEFINITION ( 'UNKNOWN', '', #192, #38 ) ;
#17 = ADVANCED_BREP_SHAPE_REPRESENTATION ( '6408715', ( #96, #186 ), #62 ) ;
#18 = ORIENTED_EDGE ( 'NONE', *, *, #43, .F. ) ;
#19 = ADVANCED_FACE ( 'NONE', ( #97 ), #150, .T. ) ;
#20 = PRESENTATION_STYLE_ASSIGNMENT (( #87 ) ) ;
#21 = EDGE_LOOP ( 'NONE', ( #40, #106 ) ) ;
#22 = CARTESIAN_POINT ( 'NONE',  ( -34.92499999999994742, 5.510910596163088569E-16, -4.500000000000000000 ) ) ;
#23 = EDGE_CURVE ( 'NONE', #120, #172, #108, .T. ) ;
#24 = DIRECTION ( 'NONE',  ( 0.0000000000000000000, 0.0000000000000000000, 1.000000000000000000 ) ) ;
#25 = PLANE ( 'NONE',  #181 ) ;
#26 = SURFACE_STYLE_USAGE ( .BOTH. , #116 ) ;
#27 = ORIENTED_EDGE ( 'NONE', *, *, #14, .T. ) ;
#28 = CARTESIAN_POINT ( 'NONE',  ( 0.0000000000000000000, 0.0000000000000000000, 0.0000000000000000000 ) ) ;
#29 = AXIS2_PLACEMENT_3D ( 'NONE', #44, #157, #183 ) ;
#30 =( LENGTH_UNIT ( ) NAMED_UNIT ( * ) SI_UNIT ( .MILLI., .METRE. ) );
#31 = CARTESIAN_POINT ( 'NONE',  ( 0.0000000000000000000, 4.500000000000000000, 0.0000000000000000000 ) ) ;
#32 = ORIENTED_EDGE ( 'NONE', *, *, #152, .T. ) ;
#33 = MECHANICAL_DESIGN_GEOMETRIC_PRESENTATION_REPRESENTATION (  '', ( #7 ), #48 ) ;
#34 = FACE_OUTER_BOUND ( 'NONE', #179, .T. ) ;
#35 = ORIENTED_EDGE ( 'NONE', *, *, #93, .T. ) ;
#36 = UNCERTAINTY_MEASURE_WITH_UNIT (LENGTH_MEASURE( 1.000000000000000082E-05 ), #164, 'distance_accuracy_value', 'NONE');
#37 = CIRCLE ( 'NONE', #56, 4.500000000000000000 ) ;
#38 = PRODUCT_DEFINITION_CONTEXT ( 'detailed design', #92, 'design' ) ;
#39 = AXIS2_PLACEMENT_3D ( 'NONE', #2, #42, #4 ) ;
#40 = ORIENTED_EDGE ( 'NONE', *, *, #93, .F. ) ;
#41 = DIRECTION ( 'NONE',  ( -1.000000000000000000, -0.0000000000000000000, -0.0000000000000000000 ) ) ;
#42 = DIRECTION ( 'NONE',  ( -1.000000000000000000, -0.0000000000000000000, -0.0000000000000000000 ) ) ;
#43 = EDGE_CURVE ( 'NONE', #200, #103, #74, .T. ) ;
#44 = CARTESIAN_POINT ( 'NONE',  ( 0.0000000000000000000, 0.0000000000000000000, 0.0000000000000000000 ) ) ;
#45 = CARTESIAN_POINT ( 'NONE',  ( 0.0000000000000000000, 0.0000000000000000000, 0.0000000000000000000 ) ) ;
#46 = CYLINDRICAL_SURFACE ( 'NONE', #76, 14.00000000000000000 ) ;
#47 = CIRCLE ( 'NONE', #39, 4.500000000000000000 ) ;
#48 =( GEOMETRIC_REPRESENTATION_CONTEXT ( 3 ) GLOBAL_UNCERTAINTY_ASSIGNED_CONTEXT ( ( #57 ) ) GLOBAL_UNIT_ASSIGNED_CONTEXT ( ( #30, #69, #83 ) ) REPRESENTATION_CONTEXT ( 'NONE', 'WORKASPACE' ) );
#49 =( LENGTH_UNIT ( ) NAMED_UNIT ( * ) SI_UNIT ( .MILLI., .METRE. ) );
#50 = DIRECTION ( 'NONE',  ( 1.000000000000000000, 0.0000000000000000000, 0.0000000000000000000 ) ) ;
#51 = DIRECTION ( 'NONE',  ( 0.0000000000000000000, 0.0000000000000000000, -1.000000000000000000 ) ) ;
#52 = FACE_OUTER_BOUND ( 'NONE', #21, .T. ) ;
#53 = FILL_AREA_STYLE ('',( #6 ) ) ;
#54 = AXIS2_PLACEMENT_3D ( 'NONE', #113, #114, #212 ) ;
#55 = EDGE_CURVE ( 'NONE', #170, #63, #85, .T. ) ;
#56 = AXIS2_PLACEMENT_3D ( 'NONE', #128, #211, #144 ) ;
#57 = UNCERTAINTY_MEASURE_WITH_UNIT (LENGTH_MEASURE( 1.000000000000000082E-05 ), #30, 'distance_accuracy_value', 'NONE');
#58 = ORIENTED_EDGE ( 'NONE', *, *, #73, .F. ) ;
#59 = AXIS2_PLACEMENT_3D ( 'NONE', #110, #41, #24 ) ;
#60 = ORIENTED_EDGE ( 'NONE', *, *, #68, .T. ) ;
#61 = DIRECTION ( 'NONE',  ( 0.0000000000000000000, 0.0000000000000000000, 1.000000000000000000 ) ) ;
#62 =( GEOMETRIC_REPRESENTATION_CONTEXT ( 3 ) GLOBAL_UNCERTAINTY_ASSIGNED_CONTEXT ( ( #36 ) ) GLOBAL_UNIT_ASSIGNED_CONTEXT ( ( #164, #70, #89 ) ) REPRESENTATION_CONTEXT ( 'NONE', 'WORKASPACE' ) );
#63 = VERTEX_POINT ( 'NONE', #124 ) ;
#64 = DIRECTION ( 'NONE',  ( -1.000000000000000000, 0.0000000000000000000, -0.0000000000000000000 ) ) ;
#65 = CARTESIAN_POINT ( 'NONE',  ( 0.0000000000000000000, 0.0000000000000000000, 14.00000000000000000 ) ) ;
#66 = ORIENTED_EDGE ( 'NONE', *, *, #14, .F. ) ;
#67 = SURFACE_SIDE_STYLE ('',( #104 ) ) ;
#68 = EDGE_CURVE ( 'NONE', #5, #200, #118, .T. ) ;
#69 =( NAMED_UNIT ( * ) PLANE_ANGLE_UNIT ( ) SI_UNIT ( $, .RADIAN. ) );
#70 =( NAMED_UNIT ( * ) PLANE_ANGLE_UNIT ( ) SI_UNIT ( $, .RADIAN. ) );
#71 = CYLINDRICAL_SURFACE ( 'NONE', #146, 4.500000000000000000 ) ;
#72 = APPLICATION_PROTOCOL_DEFINITION ( 'draft international standard', 'automotive_design', 1998, #92 ) ;
#73 = EDGE_CURVE ( 'NONE', #103, #199, #47, .T. ) ;
#74 = LINE ( 'NONE', #205, #196 ) ;
#75 = ORIENTED_EDGE ( 'NONE', *, *, #23, .T. ) ;
#76 = AXIS2_PLACEMENT_3D ( 'NONE', #184, #131, #88 ) ;
#77 = ORIENTED_EDGE ( 'NONE', *, *, #43, .T. ) ;
#78 = EDGE_CURVE ( 'NONE', #120, #170, #198, .T. ) ;
#79 = ORIENTED_EDGE ( 'NONE', *, *, #78, .F. ) ;
#80 = ADVANCED_FACE ( 'NONE', ( #193 ), #71, .F. ) ;
#81 = DIRECTION ( 'NONE',  ( -1.000000000000000000, -0.0000000000000000000, -0.0000000000000000000 ) ) ;
#82 = UNCERTAINTY_MEASURE_WITH_UNIT (LENGTH_MEASURE( 1.000000000000000082E-05 ), #49, 'distance_accuracy_value', 'NONE');
#83 =( NAMED_UNIT ( * ) SI_UNIT ( $, .STERADIAN. ) SOLID_ANGLE_UNIT ( ) );
#84 = AXIS2_PLACEMENT_3D ( 'NONE', #141, #140, #155 ) ;
#85 = CIRCLE ( 'NONE', #84, 14.00000000000000000 ) ;
#86 = CARTESIAN_POINT ( 'NONE',  ( -3.000000000000002665, 0.0000000000000000000, 0.0000000000000000000 ) ) ;
#87 = SURFACE_STYLE_USAGE ( .BOTH. , #67 ) ;
#88 = DIRECTION ( 'NONE',  ( 0.0000000000000000000, 0.0000000000000000000, 1.000000000000000000 ) ) ;
#89 =( NAMED_UNIT ( * ) SI_UNIT ( $, .STERADIAN. ) SOLID_ANGLE_UNIT ( ) );
#90 = PRODUCT_CONTEXT ( 'NONE', #165, 'mechanical' ) ;
#91 = ORIENTED_EDGE ( 'NONE', *, *, #152, .F. ) ;
#92 = APPLICATION_CONTEXT ( 'automotive_design' ) ;
#93 = EDGE_CURVE ( 'NONE', #172, #120, #107, .T. ) ;
#94 = CIRCLE ( 'NONE', #136, 14.00000000000000000 ) ;
#95 = STYLED_ITEM ( 'NONE', ( #112 ), #96 ) ;
#96 = MANIFOLD_SOLID_BREP ( 'Base-Revolve', #194 ) ;
#97 = FACE_OUTER_BOUND ( 'NONE', #214, .T. ) ;
#98 =( GEOMETRIC_REPRESENTATION_CONTEXT ( 3 ) GLOBAL_UNCERTAINTY_ASSIGNED_CONTEXT ( ( #82 ) ) GLOBAL_UNIT_ASSIGNED_CONTEXT ( ( #49, #163, #182 ) ) REPRESENTATION_CONTEXT ( 'NONE', 'WORKASPACE' ) );
#99 = DIRECTION ( 'NONE',  ( -1.000000000000000000, -0.0000000000000000000, -0.0000000000000000000 ) ) ;
#100 = FACE_OUTER_BOUND ( 'NONE', #190, .T. ) ;
#101 = EDGE_LOOP ( 'NONE', ( #66, #109, #77, #15 ) ) ;
#102 = CARTESIAN_POINT ( 'NONE',  ( 0.0000000000000000000, 1.714505518806294638E-15, -14.00000000000000000 ) ) ;
#103 = VERTEX_POINT ( 'NONE', #204 ) ;
#104 = SURFACE_STYLE_FILL_AREA ( #53 ) ;
#105 = DIRECTION ( 'NONE',  ( 0.0000000000000000000, 0.0000000000000000000, 1.000000000000000000 ) ) ;
#106 = ORIENTED_EDGE ( 'NONE', *, *, #23, .F. ) ;
#107 = CIRCLE ( 'NONE', #29, 14.00000000000000000 ) ;
#108 = CIRCLE ( 'NONE', #59, 14.00000000000000000 ) ;
#109 = ORIENTED_EDGE ( 'NONE', *, *, #167, .F. ) ;
#110 = CARTESIAN_POINT ( 'NONE',  ( 0.0000000000000000000, 0.0000000000000000000, 0.0000000000000000000 ) ) ;
#111 = FILL_AREA_STYLE ('',( #175 ) ) ;
#112 = PRESENTATION_STYLE_ASSIGNMENT (( #26 ) ) ;
#113 = CARTESIAN_POINT ( 'NONE',  ( -3.000000000000002665, 0.0000000000000000000, 0.0000000000000000000 ) ) ;
#114 = DIRECTION ( 'NONE',  ( -1.000000000000000000, -0.0000000000000000000, -0.0000000000000000000 ) ) ;
#115 = ORIENTED_EDGE ( 'NONE', *, *, #68, .F. ) ;
#116 = SURFACE_SIDE_STYLE ('',( #187 ) ) ;
#117 = DIRECTION ( 'NONE',  ( -1.000000000000000000, -0.0000000000000000000, -0.0000000000000000000 ) ) ;
#118 = CIRCLE ( 'NONE', #12, 4.500000000000000000 ) ;
#119 = EDGE_CURVE ( 'NONE', #63, #170, #94, .T. ) ;
#120 = VERTEX_POINT ( 'NONE', #102 ) ;
#121 = EDGE_LOOP ( 'NONE', ( #210, #60 ) ) ;
#122 = DIRECTION ( 'NONE',  ( -1.000000000000000000, -0.0000000000000000000, -0.0000000000000000000 ) ) ;
#123 = DIRECTION ( 'NONE',  ( -1.000000000000000000, -0.0000000000000000000, -0.0000000000000000000 ) ) ;
#124 = CARTESIAN_POINT ( 'NONE',  ( -3.000000000000002665, 0.0000000000000000000, 14.00000000000000000 ) ) ;
#125 = MECHANICAL_DESIGN_GEOMETRIC_PRESENTATION_REPRESENTATION (  '', ( #95 ), #98 ) ;
#126 = DIRECTION ( 'NONE',  ( 0.0000000000000000000, 0.0000000000000000000, 1.000000000000000000 ) ) ;
#127 = ORIENTED_EDGE ( 'NONE', *, *, #55, .T. ) ;
#128 = CARTESIAN_POINT ( 'NONE',  ( 0.0000000000000000000, 0.0000000000000000000, 0.0000000000000000000 ) ) ;
#129 = CARTESIAN_POINT ( 'NONE',  ( -34.92499999999994742, 0.0000000000000000000, 14.00000000000000000 ) ) ;
#130 = CARTESIAN_POINT ( 'NONE',  ( -3.000000000000001332, 14.00000000000000000, 0.0000000000000000000 ) ) ;
#131 = DIRECTION ( 'NONE',  ( -1.000000000000000000, -0.0000000000000000000, -0.0000000000000000000 ) ) ;
#132 = PRODUCT_RELATED_PRODUCT_CATEGORY ( 'part', '', ( #191 ) ) ;
#133 = CYLINDRICAL_SURFACE ( 'NONE', #201, 4.500000000000000000 ) ;
#134 = ORIENTED_EDGE ( 'NONE', *, *, #171, .T. ) ;
#135 = PRESENTATION_LAYER_ASSIGNMENT (  '', '', ( #95 ) ) ;
#136 = AXIS2_PLACEMENT_3D ( 'NONE', #86, #11, #149 ) ;
#137 = VECTOR ( 'NONE', #122, 1000.000000000000000 ) ;
#138 = ADVANCED_FACE ( 'NONE', ( #34 ), #46, .T. ) ;
#139 = ORIENTED_EDGE ( 'NONE', *, *, #78, .T. ) ;
#140 = DIRECTION ( 'NONE',  ( -1.000000000000000000, -0.0000000000000000000, -0.0000000000000000000 ) ) ;
#141 = CARTESIAN_POINT ( 'NONE',  ( -3.000000000000002665, 0.0000000000000000000, 0.0000000000000000000 ) ) ;
#142 = FACE_OUTER_BOUND ( 'NONE', #101, .T. ) ;
#143 = CARTESIAN_POINT ( 'NONE',  ( -34.92499999999994742, 0.0000000000000000000, 0.0000000000000000000 ) ) ;
#144 = DIRECTION ( 'NONE',  ( 0.0000000000000000000, 0.0000000000000000000, 1.000000000000000000 ) ) ;
#145 = DIRECTION ( 'NONE',  ( -0.0000000000000000000, 0.0000000000000000000, 1.000000000000000000 ) ) ;
#146 = AXIS2_PLACEMENT_3D ( 'NONE', #156, #178, #61 ) ;
#147 = ORIENTED_EDGE ( 'NONE', *, *, #171, .F. ) ;
#148 = PLANE ( 'NONE',  #188 ) ;
#149 = DIRECTION ( 'NONE',  ( 0.0000000000000000000, 0.0000000000000000000, 1.000000000000000000 ) ) ;
#150 = CYLINDRICAL_SURFACE ( 'NONE', #213, 14.00000000000000000 ) ;
#151 = VECTOR ( 'NONE', #99, 1000.000000000000000 ) ;
#152 = EDGE_CURVE ( 'NONE', #172, #63, #166, .T. ) ;
#153 = CIRCLE ( 'NONE', #54, 4.500000000000000000 ) ;
#154 = EDGE_LOOP ( 'NONE', ( #58, #147 ) ) ;
#155 = DIRECTION ( 'NONE',  ( 0.0000000000000000000, 0.0000000000000000000, 1.000000000000000000 ) ) ;
#156 = CARTESIAN_POINT ( 'NONE',  ( -34.92499999999994742, 0.0000000000000000000, 0.0000000000000000000 ) ) ;
#157 = DIRECTION ( 'NONE',  ( -1.000000000000000000, -0.0000000000000000000, -0.0000000000000000000 ) ) ;
#158 = LINE ( 'NONE', #22, #137 ) ;
#159 = CARTESIAN_POINT ( 'NONE',  ( -34.92499999999994742, 1.714505518806294638E-15, -14.00000000000000000 ) ) ;
#160 = DIRECTION ( 'NONE',  ( 0.0000000000000000000, 0.0000000000000000000, 1.000000000000000000 ) ) ;
#161 = PRESENTATION_LAYER_ASSIGNMENT (  '', '', ( #7 ) ) ;
#162 = ORIENTED_EDGE ( 'NONE', *, *, #119, .F. ) ;
#163 =( NAMED_UNIT ( * ) PLANE_ANGLE_UNIT ( ) SI_UNIT ( $, .RADIAN. ) );
#164 =( LENGTH_UNIT ( ) NAMED_UNIT ( * ) SI_UNIT ( .MILLI., .METRE. ) );
#165 = APPLICATION_CONTEXT ( 'automotive_design' ) ;
#166 = LINE ( 'NONE', #129, #174 ) ;
#167 = EDGE_CURVE ( 'NONE', #200, #5, #37, .T. ) ;
#168 = DIRECTION ( 'NONE',  ( 1.000000000000000000, 0.0000000000000000000, 0.0000000000000000000 ) ) ;
#169 = SHAPE_DEFINITION_REPRESENTATION ( #177, #17 ) ;
#170 = VERTEX_POINT ( 'NONE', #180 ) ;
#171 = EDGE_CURVE ( 'NONE', #199, #103, #153, .T. ) ;
#172 = VERTEX_POINT ( 'NONE', #65 ) ;
#173 = ADVANCED_FACE ( 'NONE', ( #209, #100 ), #25, .F. ) ;
#174 = VECTOR ( 'NONE', #195, 1000.000000000000000 ) ;
#175 = FILL_AREA_STYLE_COLOUR ( '', #10 ) ;
#176 = DIRECTION ( 'NONE',  ( 0.0000000000000000000, 0.0000000000000000000, 1.000000000000000000 ) ) ;
#177 = PRODUCT_DEFINITION_SHAPE ( 'NONE', 'NONE',  #16 ) ;
#178 = DIRECTION ( 'NONE',  ( -1.000000000000000000, -0.0000000000000000000, -0.0000000000000000000 ) ) ;
#179 = EDGE_LOOP ( 'NONE', ( #79, #75, #32, #13 ) ) ;
#180 = CARTESIAN_POINT ( 'NONE',  ( -3.000000000000002665, 1.714505518806294638E-15, -14.00000000000000000 ) ) ;
#181 = AXIS2_PLACEMENT_3D ( 'NONE', #130, #50, #51 ) ;
#182 =( NAMED_UNIT ( * ) SI_UNIT ( $, .STERADIAN. ) SOLID_ANGLE_UNIT ( ) );
#183 = DIRECTION ( 'NONE',  ( 0.0000000000000000000, 0.0000000000000000000, 1.000000000000000000 ) ) ;
#184 = CARTESIAN_POINT ( 'NONE',  ( -34.92499999999994742, 0.0000000000000000000, 0.0000000000000000000 ) ) ;
#185 = EDGE_LOOP ( 'NONE', ( #115, #27, #134, #18 ) ) ;
#186 = AXIS2_PLACEMENT_3D ( 'NONE', #28, #105, #168 ) ;
#187 = SURFACE_STYLE_FILL_AREA ( #111 ) ;
#188 = AXIS2_PLACEMENT_3D ( 'NONE', #31, #64, #145 ) ;
#189 = FACE_BOUND ( 'NONE', #121, .T. ) ;
#190 = EDGE_LOOP ( 'NONE', ( #1, #127 ) ) ;
#191 = PRODUCT ( '6408715', '6408715', '', ( #90 ) ) ;
#192 = PRODUCT_DEFINITION_FORMATION_WITH_SPECIFIED_SOURCE ( 'ANY', '', #191, .NOT_KNOWN. ) ;
#193 = FACE_OUTER_BOUND ( 'NONE', #185, .T. ) ;
#194 = CLOSED_SHELL ( 'NONE', ( #19, #80, #207, #206, #138, #173 ) ) ;
#195 = DIRECTION ( 'NONE',  ( -1.000000000000000000, -0.0000000000000000000, -0.0000000000000000000 ) ) ;
#196 = VECTOR ( 'NONE', #123, 1000.000000000000000 ) ;
#197 = CARTESIAN_POINT ( 'NONE',  ( -34.92499999999994742, 0.0000000000000000000, 0.0000000000000000000 ) ) ;
#198 = LINE ( 'NONE', #159, #151 ) ;
#199 = VERTEX_POINT ( 'NONE', #9 ) ;
#200 = VERTEX_POINT ( 'NONE', #8 ) ;
#201 = AXIS2_PLACEMENT_3D ( 'NONE', #197, #117, #126 ) ;
#202 = COLOUR_RGB ( '',1.000000000000000000, 0.9490196078431372140, 0.9098039215686274384 ) ;
#203 = CARTESIAN_POINT ( 'NONE',  ( 0.0000000000000000000, 5.510910596163088569E-16, -4.500000000000000000 ) ) ;
#204 = CARTESIAN_POINT ( 'NONE',  ( -3.000000000000002665, 0.0000000000000000000, 4.500000000000000000 ) ) ;
#205 = CARTESIAN_POINT ( 'NONE',  ( -34.92499999999994742, 0.0000000000000000000, 4.500000000000000000 ) ) ;
#206 = ADVANCED_FACE ( 'NONE', ( #52, #189 ), #148, .F. ) ;
#207 = ADVANCED_FACE ( 'NONE', ( #142 ), #133, .F. ) ;
#208 = APPLICATION_PROTOCOL_DEFINITION ( 'draft international standard', 'automotive_design', 1998, #165 ) ;
#209 = FACE_BOUND ( 'NONE', #154, .T. ) ;
#210 = ORIENTED_EDGE ( 'NONE', *, *, #167, .T. ) ;
#211 = DIRECTION ( 'NONE',  ( -1.000000000000000000, -0.0000000000000000000, -0.0000000000000000000 ) ) ;
#212 = DIRECTION ( 'NONE',  ( 0.0000000000000000000, 0.0000000000000000000, 1.000000000000000000 ) ) ;
#213 = AXIS2_PLACEMENT_3D ( 'NONE', #143, #81, #176 ) ;
#214 = EDGE_LOOP ( 'NONE', ( #35, #139, #162, #91 ) ) ;
ENDSEC;
END-ISO-10303-21;
