ISO-10303-21;
HEADER;
FILE_DESCRIPTION (( 'STEP AP214' ),
    '1' );
FILE_NAME ('7403625.STEP',
    '2019-11-18T13:22:15',
    ( '' ),
    ( '' ),
    'SwSTEP 2.0',
    'SolidWorks 2018',
    '' );
FILE_SCHEMA (( 'AUTOMOTIVE_DESIGN' ));
ENDSEC;

DATA;
#1 = EDGE_CURVE ( 'NONE', #174, #148, #60, .T. ) ;
#2 = DIRECTION ( 'NONE',  ( -0.0000000000000000000, -0.0000000000000000000, -1.000000000000000000 ) ) ;
#3 = DIRECTION ( 'NONE',  ( 0.0000000000000000000, 0.0000000000000000000, -1.000000000000000000 ) ) ;
#4 = FILL_AREA_STYLE_COLOUR ( '', #119 ) ;
#5 = EDGE_LOOP ( 'NONE', ( #32, #27, #187, #110 ) ) ;
#6 = DIRECTION ( 'NONE',  ( -0.0000000000000000000, -0.0000000000000000000, -1.000000000000000000 ) ) ;
#7 = EDGE_CURVE ( 'NONE', #170, #157, #181, .T. ) ;
#8 = LINE ( 'NONE', #63, #190 ) ;
#9 = CLOSED_SHELL ( 'NONE', ( #160, #175, #34, #67, #201, #109 ) ) ;
#10 = APPLICATION_CONTEXT ( 'automotive_design' ) ;
#11 =( LENGTH_UNIT ( ) NAMED_UNIT ( * ) SI_UNIT ( .MILLI., .METRE. ) );
#12 = VECTOR ( 'NONE', #68, 1000.000000000000000 ) ;
#13 = VERTEX_POINT ( 'NONE', #22 ) ;
#14 = MECHANICAL_DESIGN_GEOMETRIC_PRESENTATION_REPRESENTATION (  '', ( #163 ), #150 ) ;
#15 = PRODUCT_DEFINITION_CONTEXT ( 'detailed design', #59, 'design' ) ;
#16 = CARTESIAN_POINT ( 'NONE',  ( -195.7500000000000000, 4.000000000000000000, 400.0000000000000000 ) ) ;
#17 = EDGE_CURVE ( 'NONE', #36, #170, #42, .T. ) ;
#18 = EDGE_LOOP ( 'NONE', ( #87, #86, #52, #177 ) ) ;
#19 = PLANE ( 'NONE',  #58 ) ;
#20 = SURFACE_STYLE_USAGE ( .BOTH. , #98 ) ;
#21 = ORIENTED_EDGE ( 'NONE', *, *, #121, .T. ) ;
#22 = CARTESIAN_POINT ( 'NONE',  ( 195.7500000000000000, 4.000000000000000000, 400.0000000000000000 ) ) ;
#23 = AXIS2_PLACEMENT_3D ( 'NONE', #131, #44, #37 ) ;
#24 = PRESENTATION_STYLE_ASSIGNMENT (( #102 ) ) ;
#25 =( LENGTH_UNIT ( ) NAMED_UNIT ( * ) SI_UNIT ( .MILLI., .METRE. ) );
#26 = VECTOR ( 'NONE', #164, 1000.000000000000000 ) ;
#27 = ORIENTED_EDGE ( 'NONE', *, *, #53, .F. ) ;
#28 = DIRECTION ( 'NONE',  ( 0.0000000000000000000, 1.000000000000000000, 0.0000000000000000000 ) ) ;
#29 = DIRECTION ( 'NONE',  ( 0.0000000000000000000, 0.0000000000000000000, 1.000000000000000000 ) ) ;
#30 = DIRECTION ( 'NONE',  ( 1.000000000000000000, 0.0000000000000000000, 0.0000000000000000000 ) ) ;
#31 = DIRECTION ( 'NONE',  ( 0.0000000000000000000, 0.0000000000000000000, 1.000000000000000000 ) ) ;
#32 = ORIENTED_EDGE ( 'NONE', *, *, #125, .F. ) ;
#33 = PRODUCT_DEFINITION ( 'UNKNOWN', '', #142, #15 ) ;
#34 = ADVANCED_FACE ( 'NONE', ( #165 ), #153, .T. ) ;
#35 = LINE ( 'NONE', #81, #189 ) ;
#36 = VERTEX_POINT ( 'NONE', #16 ) ;
#37 = DIRECTION ( 'NONE',  ( -1.000000000000000000, 0.0000000000000000000, -0.0000000000000000000 ) ) ;
#38 = FACE_OUTER_BOUND ( 'NONE', #18, .T. ) ;
#39 = AXIS2_PLACEMENT_3D ( 'NONE', #200, #28, #135 ) ;
#40 = ORIENTED_EDGE ( 'NONE', *, *, #7, .F. ) ;
#41 = PRODUCT_RELATED_PRODUCT_CATEGORY ( 'part', '', ( #198 ) ) ;
#42 = LINE ( 'NONE', #166, #202 ) ;
#43 = CARTESIAN_POINT ( 'NONE',  ( 195.7500000000000000, 4.000000000000000000, 400.0000000000000000 ) ) ;
#44 = DIRECTION ( 'NONE',  ( 0.0000000000000000000, 0.0000000000000000000, -1.000000000000000000 ) ) ;
#45 = ORIENTED_EDGE ( 'NONE', *, *, #7, .T. ) ;
#46 = DIRECTION ( 'NONE',  ( 1.000000000000000000, 0.0000000000000000000, -0.0000000000000000000 ) ) ;
#47 = CARTESIAN_POINT ( 'NONE',  ( 195.7500000000000000, 0.0000000000000000000, -400.0000000000000000 ) ) ;
#48 = SURFACE_STYLE_FILL_AREA ( #156 ) ;
#49 = MECHANICAL_DESIGN_GEOMETRIC_PRESENTATION_REPRESENTATION (  '', ( #155 ), #167 ) ;
#50 = VECTOR ( 'NONE', #178, 1000.000000000000000 ) ;
#51 = CARTESIAN_POINT ( 'NONE',  ( -195.7500000000000000, 4.000000000000000000, -400.0000000000000000 ) ) ;
#52 = ORIENTED_EDGE ( 'NONE', *, *, #85, .F. ) ;
#53 = EDGE_CURVE ( 'NONE', #13, #157, #136, .T. ) ;
#54 = UNCERTAINTY_MEASURE_WITH_UNIT (LENGTH_MEASURE( 1.000000000000000082E-05 ), #113, 'distance_accuracy_value', 'NONE');
#55 = FACE_OUTER_BOUND ( 'NONE', #5, .T. ) ;
#56 = APPLICATION_PROTOCOL_DEFINITION ( 'draft international standard', 'automotive_design', 1998, #10 ) ;
#57 = CARTESIAN_POINT ( 'NONE',  ( -195.7500000000000000, 0.0000000000000000000, -400.0000000000000000 ) ) ;
#58 = AXIS2_PLACEMENT_3D ( 'NONE', #112, #3, #192 ) ;
#59 = APPLICATION_CONTEXT ( 'automotive_design' ) ;
#60 = LINE ( 'NONE', #129, #94 ) ;
#61 = ORIENTED_EDGE ( 'NONE', *, *, #125, .T. ) ;
#62 = FILL_AREA_STYLE ('',( #4 ) ) ;
#63 = CARTESIAN_POINT ( 'NONE',  ( -195.7500000000000000, 0.0000000000000000000, -400.0000000000000000 ) ) ;
#64 = CARTESIAN_POINT ( 'NONE',  ( 195.7500000000000000, 4.000000000000000000, -400.0000000000000000 ) ) ;
#65 = CARTESIAN_POINT ( 'NONE',  ( -195.7500000000000000, 0.0000000000000000000, 400.0000000000000000 ) ) ;
#66 = LINE ( 'NONE', #73, #186 ) ;
#67 = ADVANCED_FACE ( 'NONE', ( #115 ), #107, .T. ) ;
#68 = DIRECTION ( 'NONE',  ( 1.000000000000000000, 0.0000000000000000000, 0.0000000000000000000 ) ) ;
#69 = ORIENTED_EDGE ( 'NONE', *, *, #1, .F. ) ;
#70 = PRODUCT_DEFINITION_SHAPE ( 'NONE', 'NONE',  #33 ) ;
#71 = COLOUR_RGB ( '',1.000000000000000000, 1.000000000000000000, 1.000000000000000000 ) ;
#72 = CARTESIAN_POINT ( 'NONE',  ( 195.7500000000000000, 4.000000000000000000, -400.0000000000000000 ) ) ;
#73 = CARTESIAN_POINT ( 'NONE',  ( 195.7500000000000000, 0.0000000000000000000, 400.0000000000000000 ) ) ;
#74 = ORIENTED_EDGE ( 'NONE', *, *, #17, .F. ) ;
#75 = AXIS2_PLACEMENT_3D ( 'NONE', #65, #80, #83 ) ;
#76 = ORIENTED_EDGE ( 'NONE', *, *, #100, .F. ) ;
#77 = DIRECTION ( 'NONE',  ( -0.0000000000000000000, -0.0000000000000000000, -1.000000000000000000 ) ) ;
#78 = EDGE_CURVE ( 'NONE', #148, #170, #8, .T. ) ;
#79 = EDGE_LOOP ( 'NONE', ( #149, #69, #152, #137 ) ) ;
#80 = DIRECTION ( 'NONE',  ( 0.0000000000000000000, 1.000000000000000000, 0.0000000000000000000 ) ) ;
#81 = CARTESIAN_POINT ( 'NONE',  ( -195.7500000000000000, 0.0000000000000000000, -400.0000000000000000 ) ) ;
#82 = LINE ( 'NONE', #140, #12 ) ;
#83 = DIRECTION ( 'NONE',  ( 0.0000000000000000000, -0.0000000000000000000, 1.000000000000000000 ) ) ;
#84 = SURFACE_STYLE_FILL_AREA ( #62 ) ;
#85 = EDGE_CURVE ( 'NONE', #174, #133, #82, .T. ) ;
#86 = ORIENTED_EDGE ( 'NONE', *, *, #96, .F. ) ;
#87 = ORIENTED_EDGE ( 'NONE', *, *, #88, .T. ) ;
#88 = EDGE_CURVE ( 'NONE', #148, #95, #35, .T. ) ;
#89 = DIRECTION ( 'NONE',  ( 1.000000000000000000, 0.0000000000000000000, 0.0000000000000000000 ) ) ;
#90 = ORIENTED_EDGE ( 'NONE', *, *, #88, .F. ) ;
#91 = CARTESIAN_POINT ( 'NONE',  ( 0.0000000000000000000, 0.0000000000000000000, 0.0000000000000000000 ) ) ;
#92 = EDGE_CURVE ( 'NONE', #13, #133, #144, .T. ) ;
#93 = DIRECTION ( 'NONE',  ( -0.0000000000000000000, -0.0000000000000000000, -1.000000000000000000 ) ) ;
#94 = VECTOR ( 'NONE', #6, 1000.000000000000000 ) ;
#95 = VERTEX_POINT ( 'NONE', #47 ) ;
#96 = EDGE_CURVE ( 'NONE', #133, #95, #66, .T. ) ;
#97 = CARTESIAN_POINT ( 'NONE',  ( -195.7500000000000000, 0.0000000000000000000, 400.0000000000000000 ) ) ;
#98 = SURFACE_SIDE_STYLE ('',( #84 ) ) ;
#99 = DIRECTION ( 'NONE',  ( 0.0000000000000000000, -1.000000000000000000, 0.0000000000000000000 ) ) ;
#100 = EDGE_CURVE ( 'NONE', #174, #36, #141, .T. ) ;
#101 = PRESENTATION_STYLE_ASSIGNMENT (( #20 ) ) ;
#102 = SURFACE_STYLE_USAGE ( .BOTH. , #151 ) ;
#103 = AXIS2_PLACEMENT_3D ( 'NONE', #91, #29, #89 ) ;
#104 =( NAMED_UNIT ( * ) PLANE_ANGLE_UNIT ( ) SI_UNIT ( $, .RADIAN. ) );
#105 =( NAMED_UNIT ( * ) SI_UNIT ( $, .STERADIAN. ) SOLID_ANGLE_UNIT ( ) );
#106 = CARTESIAN_POINT ( 'NONE',  ( 195.7500000000000000, 4.000000000000000000, 400.0000000000000000 ) ) ;
#107 = PLANE ( 'NONE',  #132 ) ;
#108 = PRESENTATION_LAYER_ASSIGNMENT (  '', '', ( #155 ) ) ;
#109 = ADVANCED_FACE ( 'NONE', ( #123 ), #19, .T. ) ;
#110 = ORIENTED_EDGE ( 'NONE', *, *, #96, .T. ) ;
#111 = PLANE ( 'NONE',  #23 ) ;
#112 = CARTESIAN_POINT ( 'NONE',  ( 195.7500000000000000, 0.0000000000000000000, -400.0000000000000000 ) ) ;
#113 =( LENGTH_UNIT ( ) NAMED_UNIT ( * ) SI_UNIT ( .MILLI., .METRE. ) );
#114 = EDGE_LOOP ( 'NONE', ( #90, #124, #45, #61 ) ) ;
#115 = FACE_OUTER_BOUND ( 'NONE', #79, .T. ) ;
#116 =( NAMED_UNIT ( * ) PLANE_ANGLE_UNIT ( ) SI_UNIT ( $, .RADIAN. ) );
#117 = DIRECTION ( 'NONE',  ( -1.000000000000000000, 0.0000000000000000000, 0.0000000000000000000 ) ) ;
#118 = CARTESIAN_POINT ( 'NONE',  ( 195.7500000000000000, 4.000000000000000000, 400.0000000000000000 ) ) ;
#119 = COLOUR_RGB ( '',1.000000000000000000, 1.000000000000000000, 1.000000000000000000 ) ;
#120 =( NAMED_UNIT ( * ) PLANE_ANGLE_UNIT ( ) SI_UNIT ( $, .RADIAN. ) );
#121 = EDGE_CURVE ( 'NONE', #36, #13, #169, .T. ) ;
#122 = UNCERTAINTY_MEASURE_WITH_UNIT (LENGTH_MEASURE( 1.000000000000000082E-05 ), #25, 'distance_accuracy_value', 'NONE');
#123 = FACE_OUTER_BOUND ( 'NONE', #114, .T. ) ;
#124 = ORIENTED_EDGE ( 'NONE', *, *, #78, .T. ) ;
#125 = EDGE_CURVE ( 'NONE', #157, #95, #173, .T. ) ;
#126 = CARTESIAN_POINT ( 'NONE',  ( -195.7500000000000000, 4.000000000000000000, 400.0000000000000000 ) ) ;
#127 = VECTOR ( 'NONE', #146, 1000.000000000000000 ) ;
#128 = ORIENTED_EDGE ( 'NONE', *, *, #121, .F. ) ;
#129 = CARTESIAN_POINT ( 'NONE',  ( -195.7500000000000000, 0.0000000000000000000, 400.0000000000000000 ) ) ;
#130 = CARTESIAN_POINT ( 'NONE',  ( -195.7500000000000000, 0.0000000000000000000, 400.0000000000000000 ) ) ;
#131 = CARTESIAN_POINT ( 'NONE',  ( 195.7500000000000000, 0.0000000000000000000, 400.0000000000000000 ) ) ;
#132 = AXIS2_PLACEMENT_3D ( 'NONE', #196, #117, #31 ) ;
#133 = VERTEX_POINT ( 'NONE', #145 ) ;
#134 = FILL_AREA_STYLE_COLOUR ( '', #71 ) ;
#135 = DIRECTION ( 'NONE',  ( 0.0000000000000000000, -0.0000000000000000000, 1.000000000000000000 ) ) ;
#136 = LINE ( 'NONE', #43, #161 ) ;
#137 = ORIENTED_EDGE ( 'NONE', *, *, #17, .T. ) ;
#138 = FACE_OUTER_BOUND ( 'NONE', #162, .T. ) ;
#139 = AXIS2_PLACEMENT_3D ( 'NONE', #106, #46, #194 ) ;
#140 = CARTESIAN_POINT ( 'NONE',  ( -195.7500000000000000, 0.0000000000000000000, 400.0000000000000000 ) ) ;
#141 = LINE ( 'NONE', #97, #147 ) ;
#142 = PRODUCT_DEFINITION_FORMATION_WITH_SPECIFIED_SOURCE ( 'ANY', '', #198, .NOT_KNOWN. ) ;
#143 = DIRECTION ( 'NONE',  ( 0.0000000000000000000, 1.000000000000000000, 0.0000000000000000000 ) ) ;
#144 = LINE ( 'NONE', #118, #184 ) ;
#145 = CARTESIAN_POINT ( 'NONE',  ( 195.7500000000000000, 0.0000000000000000000, 400.0000000000000000 ) ) ;
#146 = DIRECTION ( 'NONE',  ( 1.000000000000000000, 0.0000000000000000000, 0.0000000000000000000 ) ) ;
#147 = VECTOR ( 'NONE', #143, 1000.000000000000000 ) ;
#148 = VERTEX_POINT ( 'NONE', #57 ) ;
#149 = ORIENTED_EDGE ( 'NONE', *, *, #78, .F. ) ;
#150 =( GEOMETRIC_REPRESENTATION_CONTEXT ( 3 ) GLOBAL_UNCERTAINTY_ASSIGNED_CONTEXT ( ( #54 ) ) GLOBAL_UNIT_ASSIGNED_CONTEXT ( ( #113, #120, #172 ) ) REPRESENTATION_CONTEXT ( 'NONE', 'WORKASPACE' ) );
#151 = SURFACE_SIDE_STYLE ('',( #48 ) ) ;
#152 = ORIENTED_EDGE ( 'NONE', *, *, #100, .T. ) ;
#153 = PLANE ( 'NONE',  #39 ) ;
#154 = APPLICATION_PROTOCOL_DEFINITION ( 'draft international standard', 'automotive_design', 1998, #59 ) ;
#155 = STYLED_ITEM ( 'NONE', ( #24 ), #171 ) ;
#156 = FILL_AREA_STYLE ('',( #134 ) ) ;
#157 = VERTEX_POINT ( 'NONE', #64 ) ;
#158 = PLANE ( 'NONE',  #75 ) ;
#159 = UNCERTAINTY_MEASURE_WITH_UNIT (LENGTH_MEASURE( 1.000000000000000082E-05 ), #11, 'distance_accuracy_value', 'NONE');
#160 = ADVANCED_FACE ( 'NONE', ( #38 ), #158, .F. ) ;
#161 = VECTOR ( 'NONE', #77, 1000.000000000000000 ) ;
#162 = EDGE_LOOP ( 'NONE', ( #168, #182, #128, #76 ) ) ;
#163 = STYLED_ITEM ( 'NONE', ( #101 ), #188 ) ;
#164 = DIRECTION ( 'NONE',  ( 1.000000000000000000, 0.0000000000000000000, 0.0000000000000000000 ) ) ;
#165 = FACE_OUTER_BOUND ( 'NONE', #199, .T. ) ;
#166 = CARTESIAN_POINT ( 'NONE',  ( -195.7500000000000000, 4.000000000000000000, 400.0000000000000000 ) ) ;
#167 =( GEOMETRIC_REPRESENTATION_CONTEXT ( 3 ) GLOBAL_UNCERTAINTY_ASSIGNED_CONTEXT ( ( #122 ) ) GLOBAL_UNIT_ASSIGNED_CONTEXT ( ( #25, #104, #193 ) ) REPRESENTATION_CONTEXT ( 'NONE', 'WORKASPACE' ) );
#168 = ORIENTED_EDGE ( 'NONE', *, *, #85, .T. ) ;
#169 = LINE ( 'NONE', #126, #26 ) ;
#170 = VERTEX_POINT ( 'NONE', #183 ) ;
#171 = ADVANCED_BREP_SHAPE_REPRESENTATION ( '7403625', ( #188, #103 ), #176 ) ;
#172 =( NAMED_UNIT ( * ) SI_UNIT ( $, .STERADIAN. ) SOLID_ANGLE_UNIT ( ) );
#173 = LINE ( 'NONE', #72, #50 ) ;
#174 = VERTEX_POINT ( 'NONE', #130 ) ;
#175 = ADVANCED_FACE ( 'NONE', ( #55 ), #195, .T. ) ;
#176 =( GEOMETRIC_REPRESENTATION_CONTEXT ( 3 ) GLOBAL_UNCERTAINTY_ASSIGNED_CONTEXT ( ( #159 ) ) GLOBAL_UNIT_ASSIGNED_CONTEXT ( ( #11, #116, #105 ) ) REPRESENTATION_CONTEXT ( 'NONE', 'WORKASPACE' ) );
#177 = ORIENTED_EDGE ( 'NONE', *, *, #1, .T. ) ;
#178 = DIRECTION ( 'NONE',  ( 0.0000000000000000000, -1.000000000000000000, 0.0000000000000000000 ) ) ;
#179 = SHAPE_DEFINITION_REPRESENTATION ( #70, #171 ) ;
#180 = PRESENTATION_LAYER_ASSIGNMENT (  '', '', ( #163 ) ) ;
#181 = LINE ( 'NONE', #51, #127 ) ;
#182 = ORIENTED_EDGE ( 'NONE', *, *, #92, .F. ) ;
#183 = CARTESIAN_POINT ( 'NONE',  ( -195.7500000000000000, 4.000000000000000000, -400.0000000000000000 ) ) ;
#184 = VECTOR ( 'NONE', #99, 1000.000000000000000 ) ;
#185 = PRODUCT_CONTEXT ( 'NONE', #10, 'mechanical' ) ;
#186 = VECTOR ( 'NONE', #2, 1000.000000000000000 ) ;
#187 = ORIENTED_EDGE ( 'NONE', *, *, #92, .T. ) ;
#188 = MANIFOLD_SOLID_BREP ( 'Linear-Austragen-Dünn1', #9 ) ;
#189 = VECTOR ( 'NONE', #30, 1000.000000000000000 ) ;
#190 = VECTOR ( 'NONE', #197, 1000.000000000000000 ) ;
#191 = ORIENTED_EDGE ( 'NONE', *, *, #53, .T. ) ;
#192 = DIRECTION ( 'NONE',  ( -1.000000000000000000, 0.0000000000000000000, -0.0000000000000000000 ) ) ;
#193 =( NAMED_UNIT ( * ) SI_UNIT ( $, .STERADIAN. ) SOLID_ANGLE_UNIT ( ) );
#194 = DIRECTION ( 'NONE',  ( -0.0000000000000000000, 0.0000000000000000000, -1.000000000000000000 ) ) ;
#195 = PLANE ( 'NONE',  #139 ) ;
#196 = CARTESIAN_POINT ( 'NONE',  ( -195.7500000000000000, 0.0000000000000000000, 400.0000000000000000 ) ) ;
#197 = DIRECTION ( 'NONE',  ( 0.0000000000000000000, 1.000000000000000000, 0.0000000000000000000 ) ) ;
#198 = PRODUCT ( '7403625', '7403625', '', ( #185 ) ) ;
#199 = EDGE_LOOP ( 'NONE', ( #40, #74, #21, #191 ) ) ;
#200 = CARTESIAN_POINT ( 'NONE',  ( -195.7500000000000000, 4.000000000000000000, 400.0000000000000000 ) ) ;
#201 = ADVANCED_FACE ( 'NONE', ( #138 ), #111, .F. ) ;
#202 = VECTOR ( 'NONE', #93, 1000.000000000000000 ) ;
ENDSEC;
END-ISO-10303-21;
